» » »

Devil Made Me Do It Tabs (ver.1)

Artists:  A B C D E F G H I J K L M N O P Q R S T U V W X Y Z # 

Devil Made Me Do It Tabs (ver.1)

Chicosci
Rating:
4/5 (3 votes)

Tabs too difficult? Try these video lessons and learn fast.
                Album:Chicosci
              09229015724(Sun Cell)

Gtr.Legends:
b - BEND
. - PALM MUTING
~ - LET IT RING

Gtr.Tuning:Drop D

Intro:
e|----------10--------------|
B|-8-10--8------8-10-8-10---|
G|--------------------------| 4x
D|--------------------------|
A|--------------------------|
D|--------------------------|

Verse:
e|------------------------------------------------------------------------------------------------------------|
B|------------------------------------------------------------------------------------------------------------|
G|-5b-5-7b---5b-5-7b--5b-5-7b--5b-5-7b--------------5b--5-7b--5b-5-7b--5b-5--7b--5b-5-7b----------------------|
D|--------------------------------------7-7777777-----------------------------------------7-7777777--555555---|
A|--------------------------------------7-7777777-----------------------------------------7-7777777--555555---|
D|--------------------------------------7-7777777-----------------------------------------7-7777777--555555---|
                                          .......                                        
  .......
Chorus:
e|---------------------|
B|---------------------|
G|-5555555--99999999---| 4x
D|-3333333--77777777---|
A|-3333333--77777777---|
D|-3333333--77777777---|

Repeat Verse and Chorus:

Bridge:Bass Solo then gtr.1 enters
(This is for keyboard but I translate it on gtr.)
e|---------|
B|-1--0~---|
G|-2--0~---|
D|---------|
A|---------|
D|---------|

Gtr.2 Enters:
e|----------------------|
B|----------------------|
G|----------------------|
D|-3-33333--777777777---|
A|-3-33333--777777777---|
D|-3-33333--777777777---|

Wait for the drums and vocals solo then
e|-----------------|
B|-----------------|
G|-----------------|
D|-5555555555555---|
A|-5555555555555---|
D|-5555555555555---|

Repeat Chorus 8x

Outro:
e|------------------------------------------|
B|------------------------------------------|
G|-5b-5-7b--5b-5-7b--5b-5-7b--5b-5-7b--5b---|
D|------------------------------------------|
A|------------------------------------------|
D|------------------------------------------|

End...


The Devil Made Me Do It Lyrics:

With her it felt like drowning,
The cheap wine we were drinking
(I just lied, well I just lied)
I choke on the words said,
To all the ones that I have loved since then
(Three minutes sweet, they passed me by goodnight)

Chorus:
Push, push, now we die inside
The more I have you setting the walls on fire
The more I need you we collapse in time

This is how I’m killing myself…
What were you thinking?
This is a black memorial;
Listen hard, she’s calling for you
(I just lied, well I just lied)

There’s nothing here worth saying,
Broken hearts, cut and wearing thin
(I just died , inside her eyes, goodbye)

(Repeat Chorus)

Just when I thought I couldn’t get enough
I’d give my life just to make it stop

(Repeat)

Stopwatch counting
Her days expiring

(Repeat Chorus)
            
Tabs too difficult? Try these video lessons and learn fast.




comments powered by Disqus
↑ Back to top | Tablatures and chords are parodies/interpretations of the original songs. You may use it for private study, scholarship, research or language learning purposes only