» » »

Homemade Valentine Tabs (ver.1)

Artists:  A B C D E F G H I J K L M N O P Q R S T U V W X Y Z # 

Homemade Valentine Tabs (ver.1)

Children 18 3
Rating:
3/5 (1 vote)

Tabs too difficult? Try these video lessons and learn fast.
                Intro                                      Note X=palm mute
e--------------------------------------------------------------------|
B--------------------------------------------------------------------|
G---------------44XXXX-----------------------------88888888----------| x2
D-66XXXX-22XXXX-44XXXX-44XXXX-66XXXX-44XXXX-22XXXX-88888888----------|
A-66XXXX-22XXXX-22XXXX-44XXXX-66XXXX-44XXXX-22XXXX-66666666----------|
E-44XXXX-00XXXX--------22XXXX-44XXXX-22XXXX-00XXXX-------------------|
            
Verse1            
e--------------------------------------------------------------------|
B--------------------------------------------------------------------|
G----------88-------44-------------88-------44-66--------------------|
D-66-22-44-88-66-22-44-44-66-22-44-88-66-22-44-66--------------------|
A-66-22-44-66-66-22-22-44-66-22-44-66-66-22-22-44--------------------|
E-44-00-22----44-00----22-44-00-22----44-00--------------------------|

Bridge                those are 11s and bend a little while playing
e--------------------------------------------------------------------|
B--------------------------------------------------------------------|
G-7777777777777777-0-9999999-1111111111------------------------------|
D-7777777777777777-0-9999999-9999999999------------------------------|
A-5555555555555555-0-7777777-----------------------------------------|
E--------------------------------------------------------------------|

Chorus same as Intro
Verse2 same as Verse1
Bridge
Chorus
Bridge2 is alot different but has the same chords as the verse. then after that they 
sing the chorus with just words and drums where you don't play. then you do the chorus 
a while then if you want to do the solo here it is, if not just do chorus.
Solo
e------------------------|
B--------4---------------|
G--4-6bend--646--434-----|
D------------------------| x2
A------------------------|
E------------------------|
            
Tabs too difficult? Try these video lessons and learn fast.




comments powered by Disqus
↑ Back to top | Tablatures and chords are parodies/interpretations of the original songs. You may use it for private study, scholarship, research or language learning purposes only