» » »

You Know Were All So Fond Of Dying Tabs (ver.1)

Artists:  A B C D E F G H I J K L M N O P Q R S T U V W X Y Z # 

You Know Were All So Fond Of Dying Tabs (ver.1)

Children 18 3
Rating:
4/5 (3 votes)

Tabs too difficult? Try these video lessons and learn fast.
                Children 18:3- You Know We’re All So Fond of Dying

Intro: 2 guitars 
Guitar 1: (second time stop at the 244~)
e|---------------------------------------------------------------------------|
B|---------------------------------------------------------------------------|
G|--------6666--4---------6666------11-11~-----------------------------------|
D|----66--6666--4---66----6666--4~--11-11~-----------------------------------|
A|----66--4444--2~--66----4444--4~--9--9~------------------------------------|
E|----44------------44----------2~-------------------------------------------|

Guitar 2: (play this, wait for guitar 1 to start over, and repeat)
e|---------------------------------------------------------------------------|
B|---------------------------------------------------------------------------|
G|---------------------------------------------------------------------------|
D|---------------------------------------------------------------------------|
A|-------------2-4646464646--------------------------------------------------|
E|---------------------------------------------------------------------------|

Verse: Guitar 1 only at first part (4x, only do the slide once)
e|---------------------------------------------------------------------------|
B|---------------------------------------------------------------------------|
G|----------------------------------------9\8--------------------------------|
D|--666-444-22222222--666-444-22222222----x\x--------------------------------|
A|--666-444-22222222--666-444-22222222----7\6--------------------------------|
E|--444-222-00000000--444-222-00000000---------------------------------------|
    xxx xxx xxxxxxxx  xxx xxx xxxxxxxx

Guitar 2: start after G1 goes through twice, keep repeating, rhythm varies a little
e|------6~-2-42-0------------------------------------------------------------|
B|---------------------------------------------------------------------------|
G|---------------------------------------------------------------------------|
D|---------------------------------------------------------------------------|
A|---------------------------------------------------------------------------|
E|---------------------------------------------------------------------------|

Pre-chorus:
e|---------------------------------------------------------------------------|
B|---------------------------------------------------------------------------|
G|---------------------------------------------------------------------------|
D|--4------2-----------------------------------------------------------------|
A|--4------2-----------------------------------------------------------------|
E|--2-(8x)-0-(5x)-7/---------------------------------------------------------|

Chorus: same as intro, before the next verse scr*pe the pick
Verse: Basically the same for guitar 1, this part for guitar 2 (2x)
e|------6-8-9-6-4------------------------------------------------------------|
B|---------------------------------------------------------------------------|
G|---------------------------------------------------------------------------|
D|---------------------------------------------------------------------------|
A|---------------------------------------------------------------------------|
E|---------------------------------------------------------------------------|

Bridge: part 1
e|---------------------------------------------------------------------------|
B|---------------------------------------------------------------------------|
G|---------------------------------------------------------------------------|
D|-2-2-2-2-4-4-4-4-----------------------------------------------------------|
A|-2-2-2-2-4-4-4-4---(4x)----------------------------------------------------|
E|-0-0-0-0-2-2-2-2-----------------------------------------------------------|

Part 2 (8x)
e|---------------------------------------------------------------------------|
B|---------------------------------------------------------------------------|
G|---------66/444444/333-----------------------------------------------------|
D|-666-----66/444444/333-----------------------------------------------------|
A|-666-----44/222222/111-----------------------------------------------------|
E|-444-----------------------------------------------------------------------|

Pre-chorus again, then chorus a few times


End:
e|---------------------------------------------------------------------------|
B|---------------------------------------------------------------------------|
G|---------------------------------------------------------------------------|
D|--44444-22-4-6-------------------------------------------------------------|
A|--44444-22-4-6-------------------------------------------------------------|
E|--22222-00-2-4-------------------------------------------------------------|
            
Tabs too difficult? Try these video lessons and learn fast.


comments powered by Disqus
↑ Back to top | Tablatures and chords are parodies/interpretations of the original songs. You may use it for private study, scholarship, research or language learning purposes only