» » »

Bloodrunk Tabs (ver.1)

Artists:  A B C D E F G H I J K L M N O P Q R S T U V W X Y Z # 

Bloodrunk Tabs (ver.1)

Children Of Bodom
Rating:
0/5 (0 votes)
Tabs too difficult? Try these video lessons and learn fast.
                (Intro)
This is my first tab and first bloodrunk text tab on the web.
cool.
The timing for this song is a bit wierd and I suggest playing along with song util you 
used to where each part should be played.
This is a very fun song to play and i think everyone who wants to learn this song 
This is the way i play the song.


D:------------------------|
A:------------------------|
F:----8--7----------------|
C:--5-8--7--------3---2---|
G:--5-6--5--------3---3---|
C:--5-----00000---3---2---|

D:--------------------------------|
A:--------------------------------|
F:--7---7---7---555-7---7-------8-|
C:--7---7---7---555-7---7---5---8-|
G:--5---5---5---333-5---5---5---6-|
C:---000-000-000-----000-0005000--|


D:-----------------------|
A:-----------------------|
F:--7---7---7---555------|
C:--7---7---7---555-3--2-|
G:--5---5---5---333-3--3-|
C:---000-000-000----3--2-|


D:--------------------------------|
A:--------------------------------|
F:--7---7---7---555-7---7-------8-|
C:--7---7---7---555-7---7---5---8-|
G:--5---5---5---333-5---5---5---6-|
C:---000-000-000-----000-0005000--|


D:-----------------------|
A:-----------------------|
F:--7---7---7---555------|
C:--7---7---7---555-3--2-|
G:--5---5---5---333-3--3-|
C:---000-000-000----3--2-|

Now. here's the fun part.


D:---------------------------------|
A:------------------------------6--|
F:---------------------------7---7-|
C:-------------7--------------76---|
G:------3-4--85-6-------2-3--------|
C:-0-000304--------0-000203--------|

                                 Repeat these two a few times.
D:------------------------------|
A:------------------------------|
F:----------------------------8-|
C:-------------7--------2-3-2-8-|
G:------3-4--85-6-------3-3-3-6-|
C:-0-000304--------0-0002-3-2---|
            
Tabs too difficult? Try these video lessons and learn fast.


comments powered by Disqus
↑ Back to top | Tablatures and chords are parodies/interpretations of the original songs. You may use it for private study, scholarship, research or language learning purposes only