» » »

Little Longhaired Outlaw Tabs (ver.1)

Artists:  A B C D E F G H I J K L M N O P Q R S T U V W X Y Z # 

Little Longhaired Outlaw Tabs (ver.1)

Chris Ledoux
Rating:
5/5 (1 vote)

Tabs too difficult? Try these video lessons and learn fast.
                Little Long haired outlaw.. 
Music by Chris Ledoux


     ^    ^    ^    ^                                                         
     Q    Q    Q    Q       Q    E  E  E  E  E  E     E  E  E  E  E  E  Q     
E||--0----0----0----0----|-------0--------0--------|--0--------0-------------|
B||--3----3----3----3----|----------3--------3-----|-----3--------3----------|
G||--1----1----1----1----|-------------1--------1--|--------1--------1-------|
D||--0----0----0----0----|-------------------------|-------------------------|
A||----------------------|-------------------------|-------------------------|
E||----------------------|-------------------------|-------------------------|
 
 
  Q    E  E  E  E  E  E     E  E  E  E  E  E  E  E     Q    Q    H         
-------------------------|--------------------------|---------------------|
--3----3--3--3--1--0-----|-----0--1--3--1--0--------|---------------------|
----------------------2--|--0-----------------2-----|-------2-------------|
-------------------------|-----------------------3--|-------2----2--------|
-------------------------|--------------------------|------------2--------|
-------------------------|--------------------------|------------0--------|
 
 
  ^    ^    ^    ^                                                         
  Q    Q    Q    Q       Q    E  E  E  E  E  E     E  E  E  E  E  E  Q     
--0----0----0----0----|-------0--------0--------|--0--------0-------------|
--3----3----3----3----|----------3--------3-----|-----3--------3----------|
--1----1----1----1----|-------------1--------1--|--------1--------1-------|
--0----0----0----0----|-------------------------|-------------------------|
----------------------|-------------------------|-------------------------|
----------------------|-------------------------|-------------------------|
 
 
  Q    E  E  E  E  E  E     E  E  E  E  E  E  E  E     Q    Q    H         
-------------------------|--------------------------|---------------------|
--3----3--3--3--1--0-----|-----0--1--3--1--0--------|---------------------|
----------------------2--|--0-----------------2-----|-------2-------------|
-------------------------|-----------------------3--|-------2----2--------|
-------------------------|--------------------------|------------2--------|
-------------------------|--------------------------|------------0--------|
 
 
  Q    Q    Q     Q        Q    Q    H           Q    Q    Q     E  E   
------------------------|---------------------|------------------------|
------------------------|---------------------|------------------------|
------------------------|---------------------|------------------------|
-------2----0h----2~----|-------2----0--------|-------2----0h----2--2--|
------------------------|---------------------|------------------------|
--0---------------------|--0------------------|--0---------------------|
 
 
  S S S S Q    Q    Q       Q    Q    Q     Q        Q    Q    H         
-------------------------|------------------------|---------------------|
-------------------------|------------------------|---------------------|
-------------------------|------------------------|---------------------|
-------------------------|-------2----0h----2~----|-------2----0--------|
--2-2-2-2----------------|------------------------|---------------------|
----------3----2----0----|--0---------------------|--0------------------|
 
 
                                                     ^    ^                  
  Q    Q    Q     E  E     S S S S Q    Q    Q       Q    E  E  E  E  E  E   
------------------------|-------------------------|-------------------------|
------------------------|-------------------------|-------------------------|
------------------------|-------------------------|--0----------------------|
-------2----0h----2--2--|-------------------------|--2----2--2--x-----0--2--|
------------------------|--2-2-2-2----------------|--2----2--2--x-----0--2--|
--0---------------------|----------3----2----0----|--0----0--0--0-----0--0--|
 
 
  ^    ^  PM PM             ^    ^                    ^    ^  PM PM           
  Q    E  E  E  E  E  E     Q    E  E  E  E  E  E     Q    E  E  E  E  E  E   
-------------------------|-------------------------|-------------------------|
-------------------------|-------------------------|-------------------------|
--0----------------------|--0----------------------|--0----------------------|
--2----2--2--2-----0--2--|--2----2--2--2-----0--2--|--2----2--2--2-----0--2--|
--2----2--2--2-----0--2--|--2----2--2--2-----0--2--|--2----2--2--2-----0--2--|
--0----0--0--0-----0--0--|--0----0--0--0-----0--0--|--0----0--0--0-----0--0--|
 
 
  W                   E  E  Q    H           W                 
-------------------|----------------------|-------------------|
-------------------|----------------------|-------------------|
-------------------|----------------------|-------------------|
--2----------------|--0--2--x----2--------|--2----------------|
--2----------------|--0--2--x----2--------|--2----------------|
--0----------------|-------------0--------|--0----------------|
 
 
                                             ^    ^                  
  E  E  Q    H           W                   Q    E  E  E  E  E  E   
----------------------|-------------------|-------------------------|
----------------------|--2----------------|-------------------------|
----------------------|--2----------------|--0----------------------|
--0--2--x----2--------|--2----------------|--2----2--2--x-----0--2--|
--0--2--x----2--------|-------------------|--2----2--2--x-----0--2--|
-------------0--------|-------------------|--0----0--0--0-----0--0--|
 
 
  ^    ^  PM PM             ^    ^                    ^    ^  PM PM           
  Q    E  E  E  E  E  E     Q    E  E  E  E  E  E     Q    E  E  E  E  E  E   
-------------------------|-------------------------|-------------------------|
-------------------------|-------------------------|-------------------------|
--0----------------------|--0----------------------|--0----------------------|
--2----2--2--2-----0--2--|--2----2--2--2-----0--2--|--2----2--2--2-----0--2--|
--2----2--2--2-----0--2--|--2----2--2--2-----0--2--|--2----2--2--2-----0--2--|
--0----0--0--0-----0--0--|--0----0--0--0-----0--0--|--0----0--0--0-----0--0--|
 
 
  Q    Q    Q     Q        Q    Q    H           Q    Q    Q     E  E   
------------------------|---------------------|------------------------|
------------------------|---------------------|------------------------|
------------------------|---------------------|------------------------|
-------2----0h----2~----|-------2----0--------|-------2----0h----2--2--|
------------------------|---------------------|------------------------|
--0---------------------|--0------------------|--0---------------------|
 
 
  S S S S Q    Q    Q      
-------------------------||
-------------------------||
-------------------------||
-------------------------||
--2-2-2-2----------------||
----------3----2----0----||
 
 
 
 
Duration Legend
---------------
W - whole
H - half
Q - quarter
E - 8th
S - 16th
T - 32nd
X - 64th
. - note dotted
|-n-|  - n-tuplets
 
 
Tablature Legend
----------------
L - tied note
x - dead note
g - grace note
(n) - ghost note
> - accentuded note
NH - natural harmonic
AH - artificial harmonic
TH - tapped harmonic
SH - semi harmonic
PH - pitch harmonic
h - hammer on
p - pull off
b - bend
br - bendRelease
pb - preBend
pbr - preBendRelease
brb - bendReleaseBend
\n/ - tremolo bar dip
\n - tremolo bar dive
-/n - tremolo bar Release up
/n\ - tremolo bar inverted dip
/n - tremolo bar return
-\n - tremolo bar Release down
S - shift slide
s - legato slide
/ -  slide into from below or out of upwards
\ -  slide into from above or out of downwards
~ - vibrato
W - wide vibrato
tr - tril'
TP - tremolo picking
T - tapping
S - slap
P - pop
< - fade in
^ - brush up
v - brush down
            
Tabs too difficult? Try these video lessons and learn fast.




comments powered by Disqus
↑ Back to top | Tablatures and chords are parodies/interpretations of the original songs. You may use it for private study, scholarship, research or language learning purposes only