» » »

Nobody's Fool Bass tabs (ver.2)

Artists:  A B C D E F G H I J K L M N O P Q R S T U V W X Y Z # 

Nobody's Fool Bass tabs (ver.2)

Cinderella
Rating:
0/5 (0 votes)
Tabs too difficult? Try these video lessons and learn fast.
                Artist - Cinderella 
Song - Nobody's Fool
Album - Night Songs (1987)
Bassist - Eric Brittingham
Tuning - Standard

I love this song and finally have gotten around to tabbing it out because there 
doesn't seem to be a good tab for this excellent, but simple 80's ballad anthem. 


Verse (Come in at 0:48 - "I call you on the phone") 

G|------------------------------------------------|
D|---------------------------------------0--------|
A|---0----0----0----2----0----0----3-------2h3----|
E|---------------------3--------------------------|

Chorus 

G|----------------------------|
D|----------------------------|
A|-0-------------------3------|
E|-----1---3-3333-333------3--|

Bridge 

G|------------------------------------------------------------------------|
D|------------------------------------------------------------------------|
A|-0----2----0----0-2-3-0-7----7----------7\---------7\-------- 7\-2h3-0--|
E|---------3----------------00----000-000----000-000----000-000-----------|

Solo = Verse

Post Solo 

G|-------------------------------|
D|-------------------------------|
A|-3-333-333-333--33555555555----|
E|-------------------------------|

Play Chorus to Fade Out

---------------------------------------------------


Very simple tab for a very simple song. Listen to it for the rhythem and order. 
Again - it is pretty straight forward.

Curt 
            
Tabs too difficult? Try these video lessons and learn fast.


comments powered by Disqus
↑ Back to top | Tablatures and chords are parodies/interpretations of the original songs. You may use it for private study, scholarship, research or language learning purposes only