» » »

You Told Me You Loved Me Ukulele Chords (ver.2)

Artists:  A B C D E F G H I J K L M N O P Q R S T U V W X Y Z # 

You Told Me You Loved Me Ukulele Chords (ver.2)

Cinematic Sunrise
Rating:
0/5 (0 votes)

Tabs too difficult? Try these video lessons and learn fast.
                This song is original play in piano and I really want it to play in
acoustic..if there's any mistake just comment me.
Thanks :]

[VERSE]
A, F#
A, F#
A, F#, D, D/C#
F#, D, D/C#, F#

[CHORUS]
A, D, F#, E


VERSE 1

...You said you loves me
e-0-0-0-0-0-|0-0-0-0-0--|
B-0-0-0-0-0-|0-0-0-0-0--|
G-6-6-6-6-6-|3-3-3-3-3--|
D-7-7-7-7-7-|4-4-4-4-4--|
A-7-7-7-7-7-|4-4-4-4-4--|
E-5-5-5-5-5-|2-2-2-2-2--|

  More that anyone else could ever
e-0-0-0-0-0-----0-0-0-0-0--|
B-0-0-0-0-0-----0-0-0-0-0--|
G-6-6-6-6-6-----3-3-3-3-3--|
D-7-7-7-7-7-----4-4-4-4-4--|
A-7-7-7-7-7-----4-4-4-4-4--|
E-5-5-5-5-5-----2-2-2-2-2--|

  Know but now you're leaving
e-0-0-0-0-0-----------0-0-0-0-0--|
B-0-0-0-0-0-----------0-0-0-0-0--|
G-6-6-6-6-6-----------3-3-3-3-3--|
D-7-7-7-7-7-----------4-4-4-4-4--|
A-7-7-7-7-7-----------4-4-4-4-4--|
E-5-5-5-5-5-----------2-2-2-2-2--|

   Can't wait to strive to work this
e-0-0-0-0-0-----0-0-0-0-0--|
B-0-0-0-0-0-----0-0-0-0-0--|
G-6-6-6-6-6-----3-3-3-3-3--|
D-7-7-7-7-7-----4-4-4-4-4--|
A-7-7-7-7-7-----4-4-4-4-4--|
E-5-5-5-5-5-----2-2-2-2-2--|

  Out......................And I've never been one
e-0-0-0-0-0-0-0-0-0-0-0-0-0-0---->
B-0-0-0-0-0-0-0-0-0-0-0-0-0-0---->
G-7-7-7-7-7-7-7-7-7-3-3-3-3-3---->
D-7-7-7-7-7-7-7-7-7-4-4-4-4-4---->
A-5-5-5-5/4-4-4-4-4-4-4-4-4-4---->
E-X-X-X-X-X-X-X-X-X-2-2-2-2-2---->

 one.....to.........brag
e-0-0-0-0-0-0-0-0-0-0-0-0-0-0----|
B-0-0-0-0-0-0-0-0-0-0-0-0-0-0----|
G-7-7-7-7-7-7-7-7-7-3-3-3-3-3----|
D-7-7-7-7-7-7-7-7-7-4-4-4-4-4----|
A-5-5-5-5/4-4-4-4-4-4-4-4-4-4----|
E-X-X-X-X-X-X-X-X-X-2-2-2-2-2----|

VERSE 2

The nights get lonely
And all I have left is a memory of you
I tried to say this
But now there's nothing left for me to do
And I've never been one to brag


CHORUS

 Please don't go,........just stay I watched with
e--------------0-0-0-0-0-0-0-0-0-0--------------|
B--------------0-0-0-0-0-0-0-0-0-0--------------|
G--------------6-6-6-6-6-7-7-7-7-7--------------|
D--------------7-7-7-7-7-7-7-7-7-7--------------|
A--------------7-7-7-7-7-5-5-5-5-5--------------|
E--------------5-5-5-5-5-X-X-X-X-X--------------|

 Tears in my eyes since you walked away
e-0-0-0-0-0-------------0-0-0-0-0--------|
B-0-0-0-0-0-------------0-0-0-0-0--------|
G-3-3-3-3-3-------------9-9-9-9-9--------|
D-4-4-4-4-4-------------9-9-9-9-9--------|
A-4-4-4-4-4-------------7-7-7-7-7--------|
E-2-2-2-2-2-------------X-X-X-X-X--------|

   Miss your  voice and your touch and if i
e--------------0-0-0-0-0-0-0-0-0-0--------------|
B--------------0-0-0-0-0-0-0-0-0-0--------------|
G--------------6-6-6-6-6-7-7-7-7-7--------------|
D--------------7-7-7-7-7-7-7-7-7-7--------------|
A--------------7-7-7-7-7-5-5-5-5-5--------------|
E--------------5-5-5-5-5-X-X-X-X-X--------------|

 told you i loved you  could that be enough
e-0-0-0-0-0-------------0-0-0-0-0--------|
B-0-0-0-0-0-------------0-0-0-0-0--------|
G-3-3-3-3-3-------------9-9-9-9-9--------|
D-4-4-4-4-4-------------9-9-9-9-9--------|
A-4-4-4-4-4-------------7-7-7-7-7--------|
E-2-2-2-2-2-------------X-X-X-X-X--------|


VERSE 3

An awkward silence
It's been too long since I've heard from you
And I lay sleepless
Knowing that my heart still belongs to you
And I've never been one to brag


CHORUS [2x]

[Same tabs as Chorus]

And tonight I'll stay home and miss you more than you'll ever know [x4]
            
Tabs too difficult? Try these video lessons and learn fast.




comments powered by Disqus
↑ Back to top | Tablatures and chords are parodies/interpretations of the original songs. You may use it for private study, scholarship, research or language learning purposes only