» » »

Ctait Salement Romantique Bass tabs (ver.1)

Artists:  A B C D E F G H I J K L M N O P Q R S T U V W X Y Z # 

Ctait Salement Romantique Bass tabs (ver.1)

Coeur De Pirate
Rating:
5/5 (1 vote)

Tabs too difficult? Try these video lessons and learn fast.
                __________________________
¯¯¯¯¯¯¯¯¯¯¯¯¯¯¯¯¯¯¯¯¯¯¯¯¯¯
Heyy,
Another Tab, Yay! I had just enough time to do it :)
This song is my favorite since a couple of days, i can't
stop listen to it [and "Alinéa" by ElMotor, too, 
maybe my next tab ? ;)] Well, here it is. 
I know, a lot of people asked me tab this or that McFly
tab, but when i listened carefully to "C'était salement romantique"
This morning, i realised that this song was really simple to tab. 
So, i hope you'll enjoy it anyway :)


Listen carefully to the timing
*

C'était salement romantique
Artist : Coeur de Pirate
Album : Coeur de Pirate, 2008

Tuning : Standard (EADG)
__________________________
¯¯¯¯¯¯¯¯¯¯¯¯¯¯¯¯¯¯¯¯¯¯¯¯¯¯

/ : Slide up
\ : Slide down
h : Hammer on
p : Pull off


The Bass Begin here :) [0:44]                         [1:04]

G|---2---------------------------------|             |-------|
D|---------5--------20--4h5--4---------|     2X      |---0---| 1X
A|------5-----23--0--------------------| then, you   |-0-----|
E|-------------------------------------| must play:  |-----3-|


A little bride between the two parts [1:08]

G|-------------------------------------|
D|---5---------------------------------|
A|------25-----------------------------|
E|-------------------------------------|


Verse [1:11]

G|-------------------------------------|
D|--2--0-----------2---0----------0740-|
A|--------3--2-0------2---03--32-------|
E|-------------------------------------|


Chorus  [1:31]                                              [1:52]

G|---2---------------------------------|             |-2--------------------|
D|-----20-45-------20-455-44-----------|     2X      |---20-45--05--0555555-|
A|----------023-20---------------------| then, you   |----------------------|
E|-------------------------------------| must play : |----------------------|


PIANO PART [SILENCE]

Then : [2:07]

G|-------------------------------------|
D|-------------------------------------|
A|-----0--0----------0--0--------------|
E|--023----2--20--023----2--20--023----|

G|-------------------------------------|
D|-------------------------------------|
A|--0--0----------0--0-----------------|
E|------2--20--023----2--20--023-------|

G|-------------------------------------|
D|-------------------------------------|
A|--0--0----------0--0-----------------|
E|------2--20--023----2--20--0---------|


Cheers.
            
Tabs too difficult? Try these video lessons and learn fast.


comments powered by Disqus
↑ Back to top | Tablatures and chords are parodies/interpretations of the original songs. You may use it for private study, scholarship, research or language learning purposes only