» » »

Don't Belong Tabs (ver.1)

Artists:  A B C D E F G H I J K L M N O P Q R S T U V W X Y Z # 

Don't Belong Tabs (ver.1)

Cold
Rating:
1/5 (1 vote)

Tabs too difficult? Try these video lessons and learn fast.
                
This is my first tab, so go easy on me. I noticed there were hardly any tabs (and no
thorough tabs) for this great song, so i decided to make one. I left off the bass intro
since this is a 'guitar' tab, and i know nothing about playing bass, and it sounds easy
comment. BTW, dont tell me "so and so plays it this way", because i dont care and will
not respond to those with anything other than "I dont care".

/  slide up
\  slide down
h  hammer-on
p  pull-off
v  vibrato


Standard Tunning

Intro 0:00-0:07

Play 1 Time 0:07-0:08
|-16-17-17-19-17-16-|
|-------------------|
|-------------------|
|-------------------|
|-------------------|
|-------------------|

Play 4 Times 0:08-0:25
|-14-14-14-14-14-14-14-14-14-12-12-12-12-12-16-17-17-19-17-16-|
|-------------------------------------------------------------|
|-------------------------------------------------------------|
|-------------------------------------------------------------|
|-------------------------------------------------------------|
|-------------------------------------------------------------|

Play 1 Time 0:25-0:34
|-----7/9------7/9-----7/9-----7-9-14-10-7-|
|-2/7------3/7-----2/7-----3/7-------------|
|------------------------------------------|
|------------------------------------------|
|------------------------------------------|
|------------------------------------------|

Play 3 Times 0:34-0:59
|---------------------------------|
|---------------------------------|
|---------------------------------|
|-9-9-9-9-9-9-9-9-5-5-5-5-2-2-2-2-|
|-9-9-9-9-9-9-9-9-5-5-5-5-2-2-2-2-|
|-7-7-7-7-7-7-7-7-3-3-3-3-0-0-0-0-|

Play 1 Time 0:59-1:04
|----------------------5-----|
|---------5/7v---0-5/7---8-7-|
|----------------------------|
|-4-4-4-4------5-------------|
|----------------------------|
|----------------------------|

Play 4 Times 1:04-1:20
|-14-14-14-14-14-14-14-14-14-12-12-12-12-12-16-17-17-19-17-16-|
|-------------------------------------------------------------|
|-------------------------------------------------------------|
|-------------------------------------------------------------|
|-------------------------------------------------------------|
|-------------------------------------------------------------|

Play 1 Time 1:20-1:38
|-----7/9------7/9-----7/9-----7/9-9-10-9-|
|-2/7------3/7-----2/7-----3/7------------|
|-----------------------------------------|
|-----------------------------------------|
|-----------------------------------------|
|-----------------------------------------|

------7/9-----7/9-----7/9-----7-9-14-9-10-9-|
--2/7-----3/7-----2/7-----3/7---------------|
--------------------------------------------|
--------------------------------------------|
--------------------------------------------|
--------------------------------------------|

Play 4 Times 1:38-2:11
|---------------------------------|
|---------------------------------|
|---------------------------------|
|-9-9-9-9-9-9-9-9-5-5-5-5-2-2-2-2-|
|-9-9-9-9-9-9-9-9-5-5-5-5-2-2-2-2-|
|-7-7-7-7-7-7-7-7-3-3-3-3-0-0-0-0-|

Play 1 Time 2:11-2:37
|--------------------------10-----------------------10----------|
|---5-7v---7-----5-7-8-7-8----8-7-8-------5-7-8-7-8----8-7-8/10-|
|-4------4---7-4--------------------7---4-----------------------|
|---------------------------------------------------------------|
|---------------------------------------------------------------|
|---------------------------------------------------------------|

Play 6 Times 2:37-3:28 At the end of the 6th time, take off the
last three chords and let the last chord ring.
|---------------------------------|
|---------------------------------|
|---------------------------------|
|-9-9-9-9-9-9-9-9-5-5-5-5-2-2-2-2-|
|-9-9-9-9-9-9-9-9-5-5-5-5-2-2-2-2-|
|-7-7-7-7-7-7-7-7-3-3-3-3-0-0-0-0-|

Play 5 Times when the guitar starts its 5th time of the above 3:11-3:32
|-------10---------|
|-8-7-8----8-7-8---|
|----------------7-|
|------------------|
|------------------|
|------------------|
            
Tabs too difficult? Try these video lessons and learn fast.




comments powered by Disqus
↑ Back to top | Tablatures and chords are parodies/interpretations of the original songs. You may use it for private study, scholarship, research or language learning purposes only