» » »

Gone Away Tabs (ver.4)

Artists:  A B C D E F G H I J K L M N O P Q R S T U V W X Y Z # 

Gone Away Tabs (ver.4)

Cold
Rating:
0/5 (0 votes)

Tabs too difficult? Try these video lessons and learn fast.
                Artist - Cold
Song - Gone Away acoustic
Tuning - 2 steps down, (low to high) C F Bb Eb G C

Intro/Verse
----------------------------------------------------0----
----------3-----------3-------------3-----------3-----3--
------0-----------0-----0-------0-----------0-----0------
----2---2-----------2-----2---2---2-----------2----------
--0---------0-2-3-----------0---------0-2-3--------------
---------------------------------------------------------

Chorus fill 1
----------0-------------0----------------------------------------
------3-----3-------3-----3-------------3------------------------
----2---2-----2---2---2-----2-------0-----0-------0-------0---0--
--0-------------3-------------0---2---2-----2---0---0---0---0----
--------------------------------3-------------2-------2----------

Chorus fill 2
----------0------3-----1---1-0--------------------------------------
------3-----3------3-----3-----3-----------3------------------------
----2---2-----2------2-----------0-----0-----0-------0-------0---0--
--0----------------------------------2---2-----2---0---0---0---0----
-----------------------------------3-------------2-------2----------

After Chorus 1
-0----------(5)--
-3------(5)------
-0--(5)----------
-0---------------
-2---------------
-----------------

Bridge
--0--0-0--0-0--0-0--0-0--0--0-0--0-0--0--0-0-0-0-0--
--3--3-3--3-3--3-3--3-3--3--3-3--3-3--3--3-3-3-3-3--
--2--2-2--2-2--2-2--2-2--0--0-0--0-0--0--0-0-0-0-0--
--0--0-0--0-3--3-3--3-3--2--2-2--2-0--0--0-0-0-2-2--
--0--0-0--0-0--0-0--0-0--3--3-3--3-2--2--2-2-2-3-3--
-----------------------------------3--3--3-3-3------

Outro
------------------------------------------0--
----------3-----------3-------------3-----3--
------0-----------0-----0-------0---------0--
----2---2-----------2-----2---2---2-------0--
--0---------0-2-3-----------0---------0-2-3--
---------------------------------------------



Intro/Verse - 3x
Chorus Fill 1 - 2x
After Chorus 1 - 1x
Intro/Verse - 4x
Chorus Fill 1 - 2x
Chorus Fill 2 - 2x
Bridge - 3x
Chorus Fill 1 - 2x
Chorus Fill 2 - 2x
Outro - 1x
            
Tabs too difficult? Try these video lessons and learn fast.




comments powered by Disqus
↑ Back to top | Tablatures and chords are parodies/interpretations of the original songs. You may use it for private study, scholarship, research or language learning purposes only