» » »

Happens All The Time Tabs (ver.1)

Artists:  A B C D E F G H I J K L M N O P Q R S T U V W X Y Z # 

Happens All The Time Tabs (ver.1)

Cold
Rating:
0/5 (0 votes)

Tabs too difficult? Try these video lessons and learn fast.
                The rhythm isn't exact, but I'm almost positive these are the notes, you can figure
out the rhythm.  I think this is pretty darn close! Enjoy!
Tuning: C G C F A D
   verse                                                                                       X2|
D-------------------------------------------------------|
A-------------------------------------------------------|
F—3333333333222222222232--------------432---------------|
C-----------------------33333332222222------------------|
G-------------------------------------------------------|
C-------------------------------------------------------|

D-------------------------------------------------------|
A-------------------------------------------------------|
F—33333333222222232-------------------------------------|
C------------------33333333222222-----------------------|
G-------------------------------------------------------|
C-------------------------------------------------------|
                                                                                         
                       CHORUS
                                                                                               X2
D-------------------------------------------------------|
A-------------------------------------------------------|
F—-----------------5-5-5-5----3-3-3-3-3-3-3-3--- -------|
C--3--3-3--3-------5-5-5-5----3-3-3-3-3-3-3-3-----------|
G--3--3-3- 3-------3-3-3-3----1-1-1-1-1-1-1-1-----------|
C--3--3-3--3--------------------------------------------|

Back to verse
Chorus

Break                                                                                        X2
D--------------------------------------------------------|
A--------------------------------------------------------|
F—-------------------------------------------------------|
C----0---------------2------------3---------------5------|
G----0---------------2------------3---------------5------|
C----0---------------2------------3---------------5------|
         Let ring....      ...........    ..............    ...................

2ND CHORUS                                                                          X4
D-----------------------------------------------------------------------------|
A-----------------------------------------------------------------------------|
F—---3---3---3--3-----------------------------5--5--5--5----5-5-5-5-----------|
C----3---3—--3--3-------3---3--3---3----------5--5--5--5----5-5-5-5-----------|
G----1---1---1--1-------3---3--3---3----------3--3--3--3----3-3-3-3-----------|
C-----------------------3---3--3---3------------------------------------------|


D--------------------------------------------------|
A--------------------------------------------------|
F—--3----5-----------------------------------------|
C---3----5-------0---------------------------------|
G---1----3-------0---------------------------------|
C----------------0---------------------------------|
                           Let ring........ feedback
            
Tabs too difficult? Try these video lessons and learn fast.


comments powered by Disqus
↑ Back to top | Tablatures and chords are parodies/interpretations of the original songs. You may use it for private study, scholarship, research or language learning purposes only