>
 >
Great Dream From Heaven

Great Dream From Heaven Guitar Tabs

Cooder Ry - Great Dream From Heaven chords, tabs, tablatures, lyrics

Guitar lessons | Add/correct | Request | Top 50 tabs Artists:  A B C D E F G H I J K L M N O P Q R S T U V W X Y Z 0-9

Great Dream From Heaven Guitar Tabs – Cooder Ry

CD, Sheet music, Poster

Do you like Great Dream From Heaven? Share with your friends now
Tabs
Dropped D Tuning
Arranged by Ry Cooder

3/4 time
notes: a slide symbol (/) to the same note indicates to sustain that note.
       this tune a lot of syncopated bass notes, for example measures nine
and ten where
       the thumb strikes the bass on the off beat. takes quite a while (at
least for me!) to get used to.
       as always, corrections appreciated.


--------5--5--7--|--5p---0--------|--0-----------|-----------|-------------|
---5/7-----------|----7-----3-----|-----3-----0--|-----3-----|--3--3--3----|
-----------------|----------2--2--|-----4--------|--2--------|--2--0-------|
-----0-----------|----------------|--------0--0--|--------0--|-------------|
-----------------|--0-------------|--------------|-----------|--0--2--4----|
-----------------|----------------|--5-----------|--0--------|-------------|
     |  |  |        |    |  |        |     |  |     |   | |     |  |  |


----5--5-----|--5--------|--0-------------|--2--2-----2--|--------0h2------|
/7--7--7-----|-----5--3--|-----2----------|--------------|--3--------------|
----------0--|-----------|--------2/2--0--|--2--2-----2--|--4-----0h2------|
-0-----------|-----------|----------------|--------0-----|-----4-----------|
-------------|--0--4--2--|--0-------------|-----------0--|--2--------------|
-------------|-----------|----------------|--0-----------|------------5----|
 |  |     |     |  |  |     |   |       |    |  |     |     |   |   |


0-----------|-----------|--------0--|--2-----------|--0----------|---------|
---3--0-----|-----3-----|--3--3--0--|-----3--------|-----3--2h---|---------|
0--4-----2--|-----------|--4--4-----|--2/-------2--|--0-------0--|---------|
---0--0-----|--------0--|-----------|--------------|-------------|---------|
------------|-----------|--2--------|-/0-----------|--0-----0----|---------|
------------|--0--------|-----4--5--|--------------|-------------|---------|
 | |  |        |  |  |     |  |  |     |   |    |     |  |  |


---------||--3-----2/3--|--------0--|--2--0--------|---------------|-------|
3--------||--0-----0----|--0--------|--------3-----|------------3--|-------|
---------||-------------|--0--------|--2-----2-----|-2-/2-----2----|-------|
---4--4--||-----0----0--|-----------|--0--0-----0--|------4--------|-------|
---------||-------------|-----2--4--|--------------|---------------|-------|
---0-----||--5----------|--2--------|--------------|-0-/0----------|-------|
|  |  |      |  |    |     |  |  |     |  |     |    |    |   |


------2--/|--5--5--5--|--2--0-----|--0--5--3--|--2----0h2-----|------------|
---3-----3|--7--7--7--|--------3--|-----------|---------------|------------|
----------|-----------|-----------|--2--2--4--|--2----0h2-----|------------|
----------|--0--------|--0--------|-----------|-----2---------|------------|
------2--4|--------0--|-----4-----|--0--------|--0------0-----|------------|
0---------|-----------|-----------|-----------|------------0--|------------|
|     |  |   |  |  |     |  |  |     |  |  |     |  |   |


---------------|--0-----------|-----------|--------0--|--2-----------------|----
3-----------3--|-----3--0-----|-----3-----|--3--3--0--|-----------3--------|----
------2--------|-----------2--|-----------|--4--------|-----------2-----2--|----
4--4-----------|-----0--0-----|--------0--|-----------|--------0-----------|----
---------4-----|--------------|-----------|--2--4-----|--0-----------------|----
---------------|--5-----------|--0--------|--------5--|--------------------|----
|  |     |        |  |  |        |  |  |     |  |  |     |     |         |


0-----------|-----------||--2-----------|--------2-----|--0----------------|
---3--2-----|--3--------||-----------3--|--3-----3-----|-----3-----0-------|
---------0--|--------0--||--2-----------|--2-----------|-----4--------2----|
------2-----|--4--4-----||--0--0-----4--|-----0-----0--|--------0--0-------|
0-----0-----|-----------||--------0-----|--------------|-------------------|
------------|--0--------||--------------|--0-----------|--5----------------|
|  |  |        |  |  |      |  |  |        |  |     |     |     |   |


------------|--2-------|--5--5--7p5-----|--2-----0-----|--0-----------|----|
---3--------|-----3--3/|--7--7-------3--|-----3-----3--|-----2--------|----|
---------2--|-----2--2-|----------------|--------------|--2-----2--0--|----|
------0-----|--------0-|-----0----------|--0-----------|--------------|----|
------------|--0-------|--0-------------|--------4--2--|--0-----------|----|
0-----------|----------|----------------|--------------|--------------|----|
|     |  |     |  |  |    |   |       |    |     |  |     |     |   |


2--2--0h2----|--------0h2----|--0-----------|-----------|--------0--|------|
-------------|--3------------|--------0-----|-----3-----|--3--3--0--|------|
2--2--0h2----|--------0h2----|--0--4-----2--|-----------|--4--------|------|
-------------|--4--4---------|--------0-----|--------0--|-----------|------|
0-------0----|------------4--|--------------|-----------|--2--------|------|
----------0--|---------------|--5-----------|--0--------|-----4--5--|------|
|  |    |       |  |    |       |     |  |     |  |  |     |  |  |


2--------------|--0-------------|-----------||--3--------2--3--|--------0--|----
------3--------|-----3--3p2-----|--3--------||--0-----0--0--0--|--0-----0--|----
------------2--|--0----------0--|--------0--||--0--------------|--0--------|----
---------------|----------------|--4--4-----||--0--------0--0--|-----------|----
0--------------|--0-------0-----|-----------||--5--------------|-----2--4--|----
---------------|----------------|--0--------||--5--------------|--2--------|----
|     |     |     |   |    |       |  |  |      |      |    |     |  |  |


2--0--------|-----------------|--------2--2-|--5--5--7--5--|--5--------|---|
------3-----|-----3--------3--|-----------3/|--7--7--8--7--|--7--5--3--|---|
2--0--2-----|--2--------2-----|-------------|--------------|-----------|---|
0--------0--|--------4--------|-----0-------|--0--------0--|-----------|---|
------------|-----------------|--------2--4-|--------------|--0--4--2--|---|
------------|--0--------------|-------------|--------------|-----------|---|
|  |  |        |  |     |           |  |  |    |  |     |     |  |  |


0--5--3--|--2-----02-----|--------0H2----|--0-----------|-----------|------|
---------|---------------|--3------------|-----3--0-----|-----3-----|------|
---2--4--|--2-----h2-----|--------0h2----|-----4-----2--|-----------|------|
---------|-----2---------|--4--4---------|--------0-----|--------0--|------|
0--------|--0------0-----|---------------|--------------|-----------|------|
---------|------------0--|------------4--|--5-----------|--0--------|------|
|  |  |     |  |   |        |  |     |      |  |  |        |  |  |


---5--3--|--0h2--------------|--0-----------|----------||--3-----2--3--|---|
3--------|----------3--------|-----3--2-----|--3-------||--0-----0--0--|---|
4--------|----------------3--|-----------0--|------/---||--0-----------|---|
---------|-------------------|--------------|--4--4-4--||--0--0-----0--|---|
2--------|----0--------------|--0-----------|----------||--5-----------|---|
---4--5--|-------------------|--------------|--0-------||--5-----------|---|
|  |  |       |     |     |     |  |     |     |  |  |     |  |     |


---0--3--|--2-----0-----|-----------|--2--2/--|--5--5--------|--2--0-------|
0-----0--|--------0--3--|-----------|-----3-3/|--7--7--------|--3--3--3----|
0--------|--2--------2--|--2-----2--|--2------|--------0-----|-------------|
---------|-----0-----0--|--4--4-----|---------|--0-----------|--0----------|
---2-----|--0-----------|-----------|--0--2-4-|-----------0--|-----4--2----|
2-----5--|--------------|--0--------|---------|--------------|-------------|
|  |  |     |  |     |     |  |  |     |  | |    |  |     |     |  |  |


0--5--3--|--2----0h2----|--------2-------|--0-----------|-----------|------|
---------|--------------|--3-------------|-----3--0-----|-----3-----|------|
2--2--4--|--2----0h2----|--2--2--0h2-----|-----4-----2--|-----------|------|
---------|--------------|----------------|--------0-----|--------0--|------|
0--------|--0--0---0----|----------------|--------------|-----------|------|
---------|-----------0--|-------------4--|--5-----------|--0--------|------|
|  |  |     |  |   |       |  |     |       |  |  |        |  |  |


------0--|-/2----------|--/0---------|-------------||----------------------|
3--3--0--|-----3/3-----|------2/2/---|--3----------||----------------------|
4--------|--2/------2--|----------0--|-------------||----------------------|
---------|-------------|-------------|--------4/4--||----------------------|
2--------|--0----------|--00---------|-------------||----------------------|
---4--5--|-------------|-------------|-----0-------||----------------------|
|  |  |     |  |    |     |    |   |    | |  |





Comments


Popular Cooder Ry tabs & chords
Dark Is The Night Tabs
Houston In Two Seconds Tabs
How Can You Keep On Moving Tabs
I Think Everything Will Work Out Fine (Intro) Tabs
Paris Texas Tabs
Patricia Tabs
Shes Leaving The Bank Tabs


Song lyrics



↑ Back to top | Tablatures and chords are parodies/interpretations of the original songs. You may use it for private study, scholarship, research or language learning purposes only
© 2014 AZChords.com Contact us | Privacy policy | DMCA | Add/correct tabs | Request tabs | Top 50 tabs