>
 >
Shes Leaving The Bank

Shes Leaving The Bank Guitar Tabs

Cooder Ry - Shes Leaving The Bank chords, tabs, tablatures, lyrics

Guitar lessons | Add/correct | Request | Top 50 tabs Artists:  A B C D E F G H I J K L M N O P Q R S T U V W X Y Z 0-9

Shes Leaving The Bank Guitar Tabs – Cooder Ry

CD, Sheet music, Poster

Do you like Shes Leaving The Bank? Share with your friends now
Tabs
Tuning: Db Ab Db F Ab Db
Key:
/ - slide up
\ - slide down
p - pull off
''^O mute that note
~ - let the note ring


Db|---------0------2/4~---/5~---/7~----7~-------7--0--4/5-5~-|
Ab|------0---0------------------------0---0------------------|
Db|-----0-----0----------------------0-----0-----------------|
F |----0-------0--------0-----0-----0-------0----------------|
Ab|---0--------------------------------------0---------------|
Db|--0-------------------------------------------------------|
 
Db|-----5~--3/5\3/5~p0-----0-------0-0------------0----------|
Ab|----5------------------0--0----------3/5~-----0--0-----0--|
Db|---5------------------0----0-----------------0----0---0---|
F |--5------------------0------0---------------0--------0----|
Ab|-----------------------------0-------------0--------0-----|
Db|----------------------------------------------------------|

Db|--10/12\10/12~~-----12p0-------------5~----0^?-3/5-5~-----|
Ab|-------------------0----------------5---------------------|
Db|------------------0-------------5--5----------------------|
F |-----------------0------------5---5-----------------------|
Ab|----------------0---------3/5-----------------------------|
Db|----------------------------------------------------------|

Db|-------5~--4-0--------0-----------------------------------|
Ab|------5-------------0--0----------------------------------|
Db|-----5-------------0----0---------------------------------|
F |----5-------------0------0--------------------------------|
Ab|---5-------------0----------------------------------------|
Db|----------------------------------------------------------|

Db|----------0--------|    |--0------------|
Ab|-----------0-------|    |----0----------|
Db|------(0)---0------|    |-----(0)-------|
F |----(0)------0-----| x4 |-----(0)--0-0--| x4
Ab|--(0)---------0----|    |---------------|
Db|-------------------|    |---------------|

Db|--0-----------0-------------0------------0----------------|
Ab|----0-----------0-------------0------------0--------------|
Db|------1-----------1-------------0------------0------------|
F |--------0-0---------0-0---------0--0-0-------0--0-0-------|
Ab|----------------------------------------------------------|
Db|----------------------------------------------------------|

Db|----------------|
Ab|----0------0----|
Db|------1---0--1--|
F |--0------0------|
Ab|----------------|
Db|----------------|

Db|--0------------|
Ab|----0----------|
Db|-----(0)-------| X4
F |-----(0)--0-0--|
Ab|---------------|
Db|---------------| 

Db|------------------------------------------0---------------|
Ab|---------0------------0----------------------0---0--------|
Db|----0--------0------0---0---0-1---3-----0------0----------|
F |--0--------0------0-------0-----0-----0-------------------|
Ab|----------------------------------------------------------|
Db|------0---------------------------0-----------------------|

Db|-------------------0--------------------------------------|
Ab|----------------------0---0--------------------------0----|
Db|----0---1---3----0------0--------0---1---3----0----0------|
F |--0---0---0----0---------------0---0---0----0----0--------|
Ab|----------------------------------------------------------|
Db|------------0----------------------------0----------------|

Db|----------------------------------------------------------|
Ab|----------------------------------------------------------|
Db|----0---1---3-----0^?------^?------------------------0----|
F |--0---0---0-----0----5/7p0-5/7-\5~--/5\3--0-0---0-----0-0-|
Ab|-----------------------------------------------0----------|
Db|------------0---------------------------------------------|

Db|---------------------0---0----------------------0---0-----|
Ab|----------------------------------------------------------|
Db|----0---1---3-----0----0-------0---1---3-----0----0-------|
F |--0---0---0-----0------------0---0---0-----0--------------|
Ab|----------------------------------------------------------|
Db|------------0--------------------------0------------------|

Db|-----------------------0----------------------------------|
Ab|---------------------------------------------0------0-----|
Db|----0---1---3-----0------0-----0---1---3-------0------0---|
F |--0---0---0-----0----0-------0---0---0-----0------0-------|
Ab|----------------------------------------------------------|
Db|------------0--------------------------0------------------|

Db|-----------------------------------0----------------------|
Ab|--0---------------------------------------0---------------|
Db|----0-------0---1---3-----0------0------0-----------------|
F |----------0---0---0-----0---0--0------0-----0-------------|
Ab|------0---------------------------------------------------|
Db|--------------------0-------------------------------------|
    
Db|----------------/3-2-0--------------------------/4-0-0----|
Ab|--------------------------0-------------------------------|
Db|----1---3----0----------0---0-------1---3----0------------|
F |--0---0----0------------------0---0---0----0--------------|
Ab|----------------------------------------------------------|
Db|--------0-------------------------------0-----------------|

Db|--------------/3------------------------------------------|
Ab|----0-2---0------/5-5~----0-------------------------------|
Db|--------------------------------1---3---------------------|
F |--0-----0-------------------0-0---0--------0--------------|
Ab|---------------------------------------2/3---/5~----------|
Db|----------0-------------------------0---------------------|

Db|--------------0---------------------|
Ab|-----------------0--------3-2----0--|
Db|----0---1---3------0---0-------0----|
F |--0---0---0----------0------0-------| x10
Ab|------------------------------------|
Db|------------0-----------------------|

Db|--10/12--12-12~--10/12\9-|
Ab|-------------------------|  
Db|-------------------------|
F |-------------------------|  
Ab|-------------------------|  
Db|-------------------------|  

Db|-------------0----10/12-12~--|
Ab|-----------------------------|
Db|---0---1---3-----------------|
F |-0---0---0-----0-------------| x2
Ab|-----------------------------|
Db|-----------0-----------------|

Db|--------------0----10/12~--|
Ab|---------------------------|
Db|----0---1---3--------------|
F |--0---0---0-----0----------|
Ab|---------------------------|
Db|------------0--------------|

Db|--------------------------------------------------------|
Ab|-------------0------------------------0--------0-----0--|
Db|--0---1---3----0---0--------------------0---0----0-----0|
F |0---0---0--------0---/7\5~--/5\3-0-0------0--------0----| x2
Ab|--------------------------------------------------------|
Db|----------0---------------------------------------------|

Db|--2/3-'2'-0-0--------------2/3-3-'2'-0-0----------------|
Ab|---------------0---0--0-------------------0---0--0------|
Db|----------------0-0-0--0-------------------0-0-0--0-----|
F |-----------------0---0----------------------0---0-------| x2
Ab|--------------------------------------------------------|
Db|----0--------------------------0------------------------|
 
Db|-----------------------/3-----------|
Ab|----------------0----------5-5~~----|
Db|----0---1---3-----0-----------------|
F |--0---0---0---------0---------------| x3
Ab|------------------------------------|
Db|------------0-----------------------|

Db|-----------------0---0-------|   |-----0---0--------|
Ab|-------------------0---0---0-|   |-------0---0---0--|
Db|----0---1---3------------0---|   |-------------0----|
F |--0---0---0----0-------------|   |---0--------------| x10
Ab|-----------------------------|   |------------------|
Db|------------0----------------|   |-0----------------|

Db|-------------------0---------|  
Ab|------------0--------0-------|  
Db|----------0---0--------0-----|  
F |----------------0--------0---|  
Ab|-----------------------------| 
Db|--0-/1-1---------------------| 

Db|-----------------------0----------0---|
Ab|-----------------0-------0----------0-|
Db|----0---1---3--0---0-------0----0-----|
F |--0---0---0----------0-------0--------| x2
Ab|--------------------------------------|
Db|------------0-------------------------|

Db|-----0------/4\3p0----12--7---9~-|
Ab|--/3---/5~-----------------------|
Db|---------------------------------|
F |--------------------0-------0----| x3
Ab|---------------------------------|
Db|---------------------------------|

Db|-----0-----3-3-0----12--7---9----|
Ab|--/3---/5~-----------------------|
Db|---------------------------------|
F |------------------0-------0------|
Ab|---------------------------------|
Db|---------------------------------|

Db|--5-5/7-7~~----------------------|
Ab|---------------------------------|
Db|---------------------------------|
F |----0-----------0-/5~-/5\3p0--0^-| x3
Ab|-------------/3------------------|
Db|---------------------------------|

Db|--5-5/7-7~----------------------5\3p0---/3-------0-^?3/5-5|
Ab|------------------------------5------------5~~------------|
Db|------------------------/5-5~-----------------------------|
F |----0-----------------------------------------------------|
Ab|------------/3-0-/3~~-------------------------------------|
Db|----------------------------------------------------------|

Db|-------5^?-5\3-0------0----0----0---------5---/12-12------|
Ab|-----5--------------0----0-------/5-----5-----------------|
Db|---5---------------0----0--------------5------------------|
F |-5----------------0----0--------------5-------------------|
Ab|-----------------0----------------------------------------|
Db|----------------------------------------------------------|

Db|----------12^?-12\10----------------------/5~-4-0------0--|
Ab|--------12----------/12----------12------------------0----|
Db|------12----------------12~----12-------------------0-----|
F |----12-----------------------12--------------------0------|
Ab|--12----------------------------------------------0-------|
Db|----------------------------------------------------------|

Db|--0^?-3/4-4-0-------0------0-----------0-----00-----------|
Ab|------------------0-0-------/5-------0-----0--0-----------|
Db|-----------------0---0--------------0-----0----0----------|
F |----------------0-----0------------0-----0------0---------|
Ab|----------------------------------0--------------0--------|
Db|----------------------------------------------------------|





Comments


Popular Cooder Ry tabs & chords
Dark Is The Night Tabs
Great Dream From Heaven Tabs
Houston In Two Seconds Tabs
How Can You Keep On Moving Tabs
I Think Everything Will Work Out Fine (Intro) Tabs
Paris Texas Tabs
Patricia Tabs


Song lyrics



↑ Back to top | Tablatures and chords are parodies/interpretations of the original songs. You may use it for private study, scholarship, research or language learning purposes only
© 2014 AZChords.com Contact us | Privacy policy | DMCA | Add/correct tabs | Request tabs | Top 50 tabs