» » »

I'm Tabs (ver.1)

Artists:  A B C D E F G H I J K L M N O P Q R S T U V W X Y Z # 

I'm Tabs (ver.1)

Cooper Alice
Rating:
0/5 (0 votes)

Tabs too difficult? Try these video lessons and learn fast.
                ALICE COOPER
I'm Eighteen

Chorus
     E5                              C5              D5
|------------------------------|-----------------------------------|
|------------------------------|-----------------------------------|
|------------------------------|----------5-----------------7------|
|--2-----2---------------------|------5----------------7-----------|
|--2-----2------------------0--|-3----------------5----------------|
|--0-----0-----0---0--2---3----|-----------------------------------|

Verse
|--------------------------2---------------------------------------|
|------------------------3-----------------------------------------|
|-------------------1--2-------------------------------------------|
|-2-2-------------2------------------------------------------------|
|-2-2---------0-3--------------------------------------------------|
|-0-0-0-0-2-3------------------------------------------------------|repeat


Fill 1:
|----------------------------------------------------------------------------|
|-15b--15b--15b--15b---------------------------------------------------------|
|----------------------------------------12-14-14b-14b-14b-14b-14b^12-12-----|
|----------------------------------12-14----------------------------------14-|
|----------------------------12-14-------------------------------------------|
|----------------------12-15-------------------------------------------------|

   
  
 
Fill 2:
|-------------------------------------|
|-------------------------------------|
|--14b---14^12----14b--14b-14--12-----|
|-------------^14-----------------14--|
|-------------------------------------|
|-------------------------------------|

    
Solo:
|-----------------------------------------------------------------------|
|-----------------------------------------------------------------------|
|--14b----14b-14b-14b^12----14-12----14^12^14--14^12-14^12-14^12-14^12--|
|-----------------------^14-------14------------------------------------|
|-----------------------------------------------------------------------|
|-----------------------------------------------------------------------|

|------------------------------------------------------|
|-------------------------15b^12-----------------------|
|-14-14b--14-14b--14--14--------^14^12^14-14^14b-------|
|------------------------------------------------------|
|------------------------------------------------------|
|------------------------------------------------------|

Fill 3:                                          Fill 4:
|--------------------|                           |-------------|
|--------------------| 				 |-------------|
|--14b^14--12--------|   		         |--14^14b-----|
|--------------14----|                           |-------------|
|--------------------|                           |-------------|
|--------------------|                           |-------------|

                                             
   

Fill 5:                                  Fill 6:
|----------------|                     |---------------------------|
|-15b-15b-15b----|    		       |-15^12---------------------|
|----------------| 		       |------^14--14-12-14~~~~~---|
|----------------|                     |---------------------------|
|----------------|                     |---------------------------|
|----------------|                     |---------------------------|
                                             I love it, Eighteen,
Eighteen,

Fill 7:
|---------------------------|
|---------------------------|
|-14~~~-12------------------|
|----------14-12------------|
|----------------14---12----|
|---------------------------|
 Eighteen, Eighteen and I like it !

|---------------------------|
|---------------------------| These are the last three chords
|---5----7--------9---------| Just go up and down real fast.
|---5----7--------9---------|
|---3----5--------7---------|
|---------------------------|
            
Tabs too difficult? Try these video lessons and learn fast.




comments powered by Disqus
↑ Back to top | Tablatures and chords are parodies/interpretations of the original songs. You may use it for private study, scholarship, research or language learning purposes only