» » »

Blind Pilots Bass tabs (ver.1)

Artists:  A B C D E F G H I J K L M N O P Q R S T U V W X Y Z # 

Blind Pilots Bass tabs (ver.1)

Cooper Temple Clause
Rating:
0/5 (0 votes)
Tabs too difficult? Try these video lessons and learn fast.
                Blind Pilots by The Cooper Temple Clause
Bass played by Didz Hammond
Taken from the album Kick Up The Fire, And Let The Flames Break Loose


Verse (0:01-1:02)
G|----------------|----------------|----------------|----------------|
D|----------------|----------------|----------------|----------------|
A|5555555555555555|----------------|5555555555555555|----------------|
E|----------------|2222222222222222|----------------|2222222222222222|

G|----------------|----------------|----------------|----------------|
D|5555555555555555|----------------|----------------|----------------|
A|----------------|5555555555555555|----------------|----------------|
E|----------------|----------------|2222222222222222|3333333333333333|

G|----------------|----------------|----------------|----------------|
D|----------------|4444444444444444|----------------|4444444444444444|
A|5555555555555555|----------------|5555555555555555|----------------|
E|----------------|----------------|----------------|----------------|

G|----------------|----------------|----------------|----------------|
D|5555555555555555|----------------|4444444444444444|5555555555555555|
A|----------------|5555555555555555|----------------|----------------|
E|----------------|----------------|----------------|----------------|


Chorus (1:03-1:33)
G|----------------|----------------|----------------|----------------|
D|----------------|4444444444444444|----------------|4444444444444444|
A|5555555555555555|----------------|5555555555555555|----------------|
E|----------------|----------------|----------------|----------------|

G|----------------|----------------|----------------|----------------|
D|5555555555555555|----------------|----------------|----------------|
A|----------------|5555555555555555|----------------|----------------|
E|----------------|----------------|2222222222222222|3333333333333333|


Interlude (1:34-1:57)
G|----------------|----------------|----------------|----------------|
D|----------------|----------------|----------------|----------------|
A|-5--55--55-5---5|-2--22--22-2---2|-5--55--55-5---5|-2--22--22-2---2|
E|----------------|----------------|----------------|----------------|

G|----------------|----------------|
D|-4--44--44-4---4|----------------|
A|----------------|-2--22--22222222|
E|----------------|----------------|

Verse 2 (1:57-2:27)
G|----------------|----------------|----------------|----------------|
D|----------------|4444444444444444|----------------|4444444444444444|
A|5555555555555555|----------------|5555555555555555|----------------|
E|----------------|----------------|----------------|----------------|

G|----------------|----------------|----------------|----------------|
D|5555555555555555|----------------|----------------|----------------|
A|----------------|5555555555555555|----------------|----------------|
E|----------------|----------------|2222222222222222|3333333333333333|

Chorus 2 (2:28-3:29)
G|----------------|----------------|----------------|----------------|
D|----------------|4444444444444444|----------------|4444444444444444|
A|5555555555555555|----------------|5555555555555555|----------------|
E|----------------|----------------|----------------|----------------|

G|----------------|----------------|----------------|----------------|
D|5555555555555555|----------------|4444444444444444|5555555555555555|
A|----------------|5555555555555555|----------------|----------------|
E|----------------|----------------|----------------|----------------|

G|----------------|----------------|----------------|----------------|
D|----------------|----------------|----------------|----------------|
A|5555555555555555|----------------|5555555555555555|----------------|
E|----------------|2222222222222222|----------------|2222222222222222|

G|----------------|----------------|----------------|----------------|
D|5555555555555555|----------------|4444444444444444|5555555555555555|
A|----------------|5555555555555555|----------------|----------------|
E|----------------|----------------|----------------|----------------|

Interlude 2 (3:29-4:01)
G|----------------|-4--44--44-4---4|----------------|-4--44--44-4---4|
D|----------------|----------------|----------------|----------------|
A|-5--55--55-5---5|----------------|-5--55--55-5---5|----------------|
E|----------------|----------------|----------------|----------------|

G|----------------|----------------|----------------|
D|-4--44--44-4---4|----------------|----------------|
A|----------------|-2--22--22-2---2|-5~-------------|
E|----------------|----------------|----------------|

Key;
~ : let ring

Have fun, another awesome song from TCTC. Peace
            
Tabs too difficult? Try these video lessons and learn fast.


comments powered by Disqus
↑ Back to top | Tablatures and chords are parodies/interpretations of the original songs. You may use it for private study, scholarship, research or language learning purposes only