» » »

Did You Miss Me? Tabs (ver.1)

Artists:  A B C D E F G H I J K L M N O P Q R S T U V W X Y Z # 

Did You Miss Me? Tabs (ver.1)

Cooper Temple Clause
Rating:
0/5 (0 votes)

Tabs too difficult? Try these video lessons and learn fast.
                
E----------------------------------------------
B----------------------------------------------
G----------------------------------------------
D-7-9------------------------------------------
A-----9-^-9--5-7-2-2-5-4-0-2-2---5-7-----------
E----------------------------0-----------------


E-------0-----------------0-------[-----0---------------0-------
B---------1---------0-------1-----[-------0--------------0------
G-----------2---0-2---2-------2---[---------0--------0----0-----
D----2--------2---------2-------2-[-----------2--0-2--------2---
A--0------------------------------[---2----------------------2--
E---------------------------------[-0-------------------------0-

E-----------------------------------[------
B---------3----------------3--------[------
G-----3-----3---3-----3------3---3--[------
D---3---3-----3-----3---3------3----[---2--
A-1---------------1-----------------[---2--
E-----------------------------------[---0--
            
Tabs too difficult? Try these video lessons and learn fast.


comments powered by Disqus
↑ Back to top | Tablatures and chords are parodies/interpretations of the original songs. You may use it for private study, scholarship, research or language learning purposes only