» » »

Film Maker Bass tabs (ver.1)

Artists:  A B C D E F G H I J K L M N O P Q R S T U V W X Y Z # 

Film Maker Bass tabs (ver.1)

Cooper Temple Clause
Rating:
0/5 (0 votes)

Tabs too difficult? Try these video lessons and learn fast.
                Intro:

|-----------|
|---4-2-----|
|-------4---|
|-----------|

Verse:

(Fast)

|----------------------------------------------------|
|-------4-2----------4-2----------4-2----------4-2---|
|-----------4------------4------------2------------2-|
|-22222--------22222--------22222--------22222-------|

|----------------------------------------------------|
|-------5-3----------5-3----------4-2----------4-2---|
|-----------5------------5------------2------------2-|
|-33333--------33333--------22222--------22222-------|


Chorus:

|----------------------------------------------------|
|----------------------------------------------------|
|----------------------------------------------------|
|--5555555555555555--33>5555<3--|

End:

|----|
|----|
|----|
|-2--|
            
Tabs too difficult? Try these video lessons and learn fast.


comments powered by Disqus
↑ Back to top | Tablatures and chords are parodies/interpretations of the original songs. You may use it for private study, scholarship, research or language learning purposes only