» » »

It Doesn't Matter Tabs (ver.2)

Artists:  A B C D E F G H I J K L M N O P Q R S T U V W X Y Z # 

It Doesn't Matter Tabs (ver.2)

Crush 40
Rating:
0/5 (0 votes)

Tabs too difficult? Try these video lessons and learn fast.
                (Intro)

Tuning: E-A-D-G-B-e

The opening for the sonic theme song on Sonic Adventure 2 Battle

e|-----------------------------------------------------------------|
B|------5-----------5-----------5----------------------------------|
G|--6-7---7-6---------7-----6-7---7-6-----------7~-----------------|
D|------------7-5-7-------------------7-9-7-9-5--------------------|
A|-----------------------------------------------------------------|
E|-----------------------------------------------------------------|

e|-----------------------------------------------------------------|
B|-----------------------------------------------------------------|
G|---9-9---7-7---6-6---7-7---9-------------------------------------|
D|---9-9---7-7---6-6---7-7---9-------------------------------------|
A|---7-7---5-5---4-4---5-5---7-------------------------------------|
E|-----------------------------------------------------------------|
            
Tabs too difficult? Try these video lessons and learn fast.


comments powered by Disqus
↑ Back to top | Tablatures and chords are parodies/interpretations of the original songs. You may use it for private study, scholarship, research or language learning purposes only