» » »

Keys To The Ruin Tabs (ver.1)

Artists:  A B C D E F G H I J K L M N O P Q R S T U V W X Y Z # 

Keys To The Ruin Tabs (ver.1)

Crush 40
Rating:
3/5 (1 vote)

Tabs too difficult? Try these video lessons and learn fast.
                Sorry if its not explained well it is my first tab but personally I think I did a good
putting it together.

Intro

E|------------------------------------------------------------|
B|------------------------------------------------------------|
G|------------------------------------------------------------|
D|------------------------------------------------------------|
A|-----------5v-----------7v--7--------5v-----------5--7h9p7--|
E|--7--5--7------7--5--7---------5--7------7--5--7------------|x2

E|-----|
B|-----|
G|-----|
D|--2--|
A|--2--|
E|--0--|

Chorus

E|----------------------------------------------------------------------------|
B|--10b11r10--8--10-----10b11r10--8--10-----8\0-----------8--10--12b14--14----|
G|-------------------9-------------------7-----------0/9----------------------|
D|----------------------------------------------------------------------------|
A|----------------------------------------------------------------------------|
E|----------------------------------------------------------------------------|x2


E|--------------------------------------------------------------------|
B|--10b11--10--10--11b10--8--10-----8\0-------------8--10--12b14--12--|
G|-------------------------------9-------------0/9--------------------|
D|--------------------------------------------------------------------|
A|--------------------------------------------------------------------|
E|--------------------------------------------------------------------|

E|----------------------------------------------------------------------------|
B|--10b11r10--8--10-----10b11r10--8--10-----8\0-----------8--10--12b14--14----|
G|-------------------9-------------------7-----------0/9----------------------|
D|----------------------------------------------------------------------------|
A|----------------------------------------------------------------------------|
E|----------------------------------------------------------------------------|

Main solo (after the accordion I think it is)
E|-------------------------|----------------------------|--------------------------------------|
B|-------------8--10b11r9--|-----------10b11r10--8--7v--|--14\7--7--12--10h12p10--10\5\4--4/7--|
G|-------7--9--------------|-----7--9-------------------|--------------------------------------|
D|--0/9--------------------|--9-------------------------|--------------------------------------|
A|-------------------------|----------------------------|--------------------------------------|
E|-------------------------|----------------------------|--------------------------------------|

E|-----------------------------------|
B|-----------------------------------|
G|--5/9--9--11--11--11h12p11--14/16--|
D|-----------------------------------|
A|-----------------------------------|
E|-----------------------------------|

E|--0/12/14--14b15r14--12--11--------------------------------------|
B|---------------------------------15b16r15--13--15b16r15--13--12--|
G|-----------------------------------------------------------------|
D|-----------------------------------------------------------------|
A|-----------------------------------------------------------------|
E|-----------------------------------------------------------------|

E|--------------------------------------------|
B|--12b13r12--10--12--12b13r12--12/14/16/17v--|
G|--------------------------------------------|
D|--------------------------------------------|
A|--------------------------------------------|
E|--------------------------------------------|


This is what plays during the steel drums

E|--------------------------------------|---------------------------------------|
B|--------------------------------------|---------------------------------------|
G|-----------7--------3-----------------|-----------7--------3------------------|
D|--2--------7--------3--------3--3--2--|--2--------7--------3--------3--3--5---|
A|--2--------5--------1--------3--3--2--|--2--------5--------1--------3--3--5---|
E|--0--------------------------1--1--0--|--0--------------------------1--1--3---| 

That is basically it. It just keeps repeating till the levels over.
            
Tabs too difficult? Try these video lessons and learn fast.




comments powered by Disqus
↑ Back to top | Tablatures and chords are parodies/interpretations of the original songs. You may use it for private study, scholarship, research or language learning purposes only