» » »

All I Want Bass tabs (ver.2)

Artists:  A B C D E F G H I J K L M N O P Q R S T U V W X Y Z # 

All I Want Bass tabs (ver.2)

Cure
Rating:
0/5 (0 votes)

Tabs too difficult? Try these video lessons and learn fast.
                All I Want by The Cure 
Bass Tabs by IncurableNikki
D A D G tuning

This song sound much better and fuller
when the low string is detuned to a D
instead of the standard E string. Enjoy!

(Asterisk * means to repeat the note) 


   Intro. (x2)
G-|------------------|----------------|------------------|----------------|
D-|------------------|----------------|------------------|----------------|
A-|5--5-533/8--8-810*|0--0-0--0--0-033|5--5-533/8--8-810*|0--0-0--0--0-033|
D-|------------------|------55--------|------------------|------55--------|

   A. Repeat: x4 (1st verse after 2)
G-|----------------|----------------|----------------|----------------|
D-|----------------|----------------|----------------|----------------|
A-|----------------|0--0-0--0--0-033|----------------|0--0-0--0--0-033|
D-|0--0-0223--3-355|------55--------|0--0-0223--3-355|------55--------|

   B. Repeat: x2
G-|-----------------|-----------------|-----------------|----------------|
D-|-----------------|-----------------|-----------------|----------------|
A-|8--8-8778--8-810*|0--0-0--0--0-033/|8--8-8778--8-810*|0--0-0--0--0-033|
D-|-----------------|------55---------|-----------------|------55--------|

Repeat: A x4 (2st verse after 2)
Repeat: B x2
Repeat: A x6 to the end
            
Tabs too difficult? Try these video lessons and learn fast.


comments powered by Disqus
↑ Back to top | Tablatures and chords are parodies/interpretations of the original songs. You may use it for private study, scholarship, research or language learning purposes only