» » »

After The Movies Bass tabs (ver.1)

Artists:  A B C D E F G H I J K L M N O P Q R S T U V W X Y Z # 

After The Movies Bass tabs (ver.1)

Cursive
Rating:
0/5 (0 votes)

Tabs too difficult? Try these video lessons and learn fast.
                standard tuning 
key - [/ slide] [() drop]
 
This is pretty damn accurate, doesn't show measures so figure out 
the correct spacing with the song. Start playing after the guitar
intro when Tim starts singing. Cursive rocks my face.
 
G|------------------------------------------------------------
D|------------------------------------------------------------
A|--------------------6---------5-----------------------------
E|3-3--3-3--1-1--1-1------------------------------------------
 
G|------------------------------------------------------------
D|-------------------------------------444--444---------------
A|-------------------3/6-66-6-66-5-55-5---55---5--------------
E|3-33-3-33-1-11-1-11-----------------------------------------
 

G|-------------------------------------------------------------------------
D|---------------------------------------------------------------444--444--
A|------------353------------3/9-10-11--6666666566666(5)666-55555---55---5-
E|33-333-333-3---11-111-111-1----------------------------------------------
 

G|-------------------------------------------------------------------------
D|-------------------------------------------------686------5--444--444----
A|-------------53------------3/9-10-9---66-66-666-6---555555-55---55---5---
E|33-333-333-03--11-111-111-1----------------------------------------------
 
       v-don't do triplets first time 
G|--------------------------------------------------------------
D|-----------------------6---4[44]6[66]-------------------------
A|----------------6666666-555----------5------------------------
E|33-33-1-33-33-1----------------------------------------------- x2
 
    v-play only one
G|--------------------------------------------------------------
D|-----------4/6-/4-----6-----444-------------------------------
A|-----65----9/11/9-6-66-65-55---5------------------------------
E|3--33--1-1---------------------------------------------------- x2
 

G|--------------------------------------------------------------
D|-------------------464----46----------------------------------
A|-------------3/66-6---55-5--5-----------6-----5---------------
E|3333-----1-11-----------------3-----1--------------3----3---3-
            
Tabs too difficult? Try these video lessons and learn fast.


comments powered by Disqus
↑ Back to top | Tablatures and chords are parodies/interpretations of the original songs. You may use it for private study, scholarship, research or language learning purposes only