» » »

Into The Fold Bass tabs (ver.1)

Artists:  A B C D E F G H I J K L M N O P Q R S T U V W X Y Z # 

Into The Fold Bass tabs (ver.1)

Cursive
Rating:
0/5 (0 votes)
Tabs too difficult? Try these video lessons and learn fast.
                Cursive - "Into the Fold"

Colossally underrated song by an amazing band. Off the record "Happy Hollow."

Start with:
G----------------------------------------------|
D--8-8-8-8-------------------------------------|
A----------------------------------------------|
E----------------------------------------------|

INTRO/BRIDGE
G-----------------------------------------------------------------------------------|
D----5-7-8---8---5-----5-7----5-7---7-5-------7-5---5-7-----------------------------|
A--------------8-----8------8-----------8---8-----------5---------------------------|
E-----------------------------------------------------------------------------------|

VERSE PT. 1
G----------------------------------------------|
D----------------------------------------------|
A---5------------------5-----------------------|
E-------6---3---5-6-5------6---3---5-5-3-5-----|

G-----------------------------------------------|
D---------------7-8-7-5-------------------------|
A---5-------------------5-----------------------|
E-------6---3---------------6---3---5-5-3-5-----|

VERSE PT. 2
G----------------------------------------------------------------------|
D-------------------------------------------7------5------8------5-----|
A--7777777777777777777777-5-7-8--5-7-8--7-8----7-8----7-8----7-8-------|
E----------------------------------------------------------------------|

G--------------------------------------------------------------------------------------|
D-------------------------------------------------------------7------5------8------5---|
A---5-----8-10-8----------------------------5-7-8--5-7-8--7-8----7-8----7-8----7-8-----|
E-----------------6666666666-3-5-6666666666--------------------------------------------|

G---------------------------------------------|
D---------------------------------------------|
A---5-----8-10-8------------------------------|
E-----------------666666666666666666666666----|

Repeat VERSE PT. 1
Repeat VERSE PT. 2
Quiet guitar bridge
Repeat INTRO/BRIDGE to end
            
Tabs too difficult? Try these video lessons and learn fast.


comments powered by Disqus
↑ Back to top | Tablatures and chords are parodies/interpretations of the original songs. You may use it for private study, scholarship, research or language learning purposes only