» » »

Evolutionary Sleeper Tabs (ver.1)

Artists:  A B C D E F G H I J K L M N O P Q R S T U V W X Y Z # 

Evolutionary Sleeper Tabs (ver.1)

Cynic
Rating:
4/5 (4 votes)

Tabs too difficult? Try these video lessons and learn fast.
                
Cynic - Evolutionary Sleeper - (Traced in air 2008) -
Palermo - Italy


This is a start... If someone complete this, please contact me to upgrade!

Riff 1 - Clear Guitar

-0------0------0------0--------|
-0------6------5------3------0-|
-9------7------5------4------1-|
-7------5------3------2------2-|
-0-----(0)----(0)-----0------0-|
-------------------------------|


Riff 2 a - Distortion Guitar


------------------------------------------------------------------------------------|
------------------------------------------------------------------------------------|
-----------9----------------------------h----------------10-----------------9-------|
----------------------12---10-9--------9-10----12--12-12----12----10--10-10---10----|
-12--12-12------12-12------------11-11----------------------------------------------|
------------------------------------------------------------------------------------|

--------------------------------------------------------------------------------------|
--------------------------------------------------------------------------------------|
-----------9----------------------------h-------------7-------------------------------|
----------------------12---10-9--------9-10----6--6-6---6-6---------------------------|
-12--12-12------12-12------------11-11------------------------------------------------|
--------------------------------------------------------------------------------------|


Riff 2 b (frase) - Distortion Guitar

----------------------------------------------|
----------------------------------------------|
-----------9----------------------------h-----|
----------------------12---10-9--------9-10---|
-12--12-12------12-12------------11-11--------|
----------------------------------------------|


Riff 3 (interlude - arpegios) - Distortion Guitar

------------------------------------------------|
-------------------------------12---------------|
-10-----9------------------10------10-----------|
-9------9--------------12--------------12-------|
-8------7-----/11--11---------------------------|
------------------------------------------------|
------------------------------------------------|

Riff 3 (interlude - arpegios) - Distortion Guitar

--------------------------------------------------------------------------------|
-3------3----------------------12-----------------------------------------------|
-5------4------------------10------10--------------------------------------15---|
-5------4--------------12--------------12-------------------------------13------|
-3------2-----/11--11---------------------------------------12-12-15-15---------|
------------------------------------------------11-11-14-14---------------------|
--------------------------------------------------------------------------------|


Riff 4 (bridge) - Distortion Guitar

----------------------------|
----------------------------|
----------------------------|
----------------------------|
-----------------3---2---3--|
-1-1-1-1-1-1-1-1---1---1----|   2 times


----------------------------|
----------------------------|
----------------------------|
----------------------------|
-----------------3---2---3--|
-0-0-0-0-0-0-0-0---0---0----|   2 times


----------------------------|
----------------------------|
----------------------------|
-----------------3---2---3--|
-0-0-0-0-0-0-0-0---0---0----|
----------------------------|   2 times


----------------------------|
----------------------------|
----------------------------|
-----------------3---2---3--|
-2-2-2-2-2-2-2-2---2---2----|
----------------------------|   2 times


--------------------------------------------------------------|
--------------------------------------------------------------|
------------2---------------2-------------------------------0-|
------------3---------------0---------------0---------------6-|
-2--2-2-2-2-2----2--2-2-2-2-2---------------7---------------7-|
---------------------------------4--4-4-4-4-4----4--4-4-4-4-4-|
            
Tabs too difficult? Try these video lessons and learn fast.




comments powered by Disqus
↑ Back to top | Tablatures and chords are parodies/interpretations of the original songs. You may use it for private study, scholarship, research or language learning purposes only