» » »

Aerodynamics Tabs (ver.5)

Artists:  A B C D E F G H I J K L M N O P Q R S T U V W X Y Z # 

Aerodynamics Tabs (ver.5)

Daft Punk
Rating:
4/5 (15 votes)

Tabs too difficult? Try these video lessons and learn fast.
                First of all the 2nd Guitar bit

When I play this I sort of add in a few extra notes that the guitar doesn't play but a 
or some synth voice is playing.
Don't stick rigidly to this tab either-I don't! Just use it as a base to start from.

Broke it down into four segaments that are played straight after each other

Guitar 2

e----------------------|
B----------------------|
G---7--------7---------|
D-----9---7h9--9--4-5--|
A----------------------|
E----------------------|

e----------------------|
B----------------------|
G---7--------7---------|
D-----9---7h9--9--7-9--|
A----------------------|
E----------------------|

e----------------------|
B----------------------|
G---7--------7---------|
D-----9---7h9--9--4-5--|
A----------------------|
E----------------------|

e----------------------|
B----------------------|
G---7-7------7---------|
D---------7h9--9--7-9--|  Repeat over   (This figures on and off throughout)
A----------------------|
E----------------------|


to be more accurate to what the guitar in the song plays don't play the last two notes 
each segment (ie  D----4-5- OR  D----7-9-)


The main Guitar bit can be played a few ways. I think the way they do it is to finger 
with the right hand over on the fretboard...When I play it I just finger pick it like 
with thumb and index finger. I like playing it like this because I think you get more control of the string.

Main Bit (Distorted)

e---10---7-- ----¬ ---10---7-- ----¬ ---15--12-- ----¬ ---12---9-- ----¬
B------7---7       ------9---9       -----12--12       -----10--10----|
G-----------  x4   -----------   x4  -----------   x4  ---------------|   x4
D-----------       -----------       -----------       ---------------|
A-----------       -----------       -----------       ---------------|
E-----------       -----------       -----------       ---------------|


This is all repeated throughout different sections. It goes quite fast. You might find 
handier to finger tap like I think has been suggested in other tabs.

It's a cool tune. Hope you enjoy.
            
Tabs too difficult? Try these video lessons and learn fast.




comments powered by Disqus
↑ Back to top | Tablatures and chords are parodies/interpretations of the original songs. You may use it for private study, scholarship, research or language learning purposes only