» » »

Full Emperial Collapse Tabs (ver.1)

Artists:  A B C D E F G H I J K L M N O P Q R S T U V W X Y Z # 

Full Emperial Collapse Tabs (ver.1)

Darkest Hour
Rating:
0/5 (0 votes)

Tabs too difficult? Try these video lessons and learn fast.
                This is all I've got of it. It's probably wrong but It's one of the best songs off of 
Us, So I had to try.

This is also my first tab.

TUNING-STANDARD


The beginning is just random muted picking.


Verse 1 x5
|---------------------------------------|
|---------------------------------------|
|---------------------------------------|
|---------------------------------------|
|--3-3-3-7-7-7-2-2-2-3-2-5-3------------|
|--1-1-1-5-5-5-0-0-0-1-0 3-1------------|


Chorus x2 (find out the picking pattern on your own, its easy)
|---------------------------------------|
|---------------------------------------|
|---------------------------------------|
|---------------------------------------|
|--3-3-3-3-2-2-2-2-1-3-4-4-4-4----------|
|--1-1-1-1-0-0-0-0-1-3-4-4-4-4----------|


Cont.
|---------------------------------------|
|---------------------------------------|
|---------------------------------------|
|---------------------------------------|
|2-2-XXXX-2-2-XXXX-2-X-2-X-2-X-2--------|
|0-0-XXXX-0-0-XXXX-0-X-0-X-0-X-0--------|


Verse 2. x5
|---------------------------------------|
|---------------------------------------|
|---------------------------------------|
|---------------------------------------|
|--3-3-3-7-7-7-2-2-2-3-2-5-3------------|
|--1-1-1-5-5-5-0-0-0-1-0 3-1------------|

|---------------------------------------|
|---------------------------------------|
|---------------------------------------|
|---------------------------------------|
|2-2-XXXX-2-2-XXXX-2-X-2-X-2-X-2--------|
|0-0-XXXX-0-0-XXXX-0-X-0-X-0-X-0--------|


Chorus x2
|---------------------------------------|
|---------------------------------------|
|---------------------------------------|
|---------------------------------------|
|--3-3-3-3-2-2-2-2-1-3-4-4-4-4----------|
|--1-1-1-1-0-0-0-0-1-3-4-4-4-4----------|

|---------------------------------------|
|---------------------------------------|
|---------------------------------------|
|---------------------------------------|
|2-2-XXXX-2-2-XXXX-2-X-2-X-2-X-2--------|
|0-0-XXXX-0-0-XXXX-0-X-0-X-0-X-0--------|


(pick slide in the backround)
|---------------------------------------|
|---------------------------------------|
|---------------------------------------|
|---------------------------------------|
|---------------------------------------|
|0-1-0-1-4-0-1-0-1-4--------------------|

Palm muted during solo
|---------------------------------------|
|---------------------------------------|
|---------------------------------------|
|---------------------------------------|
|3-2-3-3-3-3-2-5-6-6-6-6-6-6-6-6--------|
|1-0-1-1-1-1-0-3-4-4-4-4-4-4-4-4--------|


The solo is some kinda of finger picking
pattern that I can't tab, but its basically
a scale and a sweep at the end. :\ Maybe
you can figure it out.


|---------------------------------------|
|---------------------------------------|
|---------------------------------------|
|---------------------------------------|
|3-2-3-2-3-5-6-2-2-2-2------------------|
|1-0-1-0-1-3-4-0-0-0-0------------------|


Tell me what you think.

Darkest Hour owns.
            
Tabs too difficult? Try these video lessons and learn fast.


comments powered by Disqus
↑ Back to top | Tablatures and chords are parodies/interpretations of the original songs. You may use it for private study, scholarship, research or language learning purposes only