» » »

Full Imperial Collapse Tabs (ver.1)

Artists:  A B C D E F G H I J K L M N O P Q R S T U V W X Y Z # 

Full Imperial Collapse Tabs (ver.1)

Darkest Hour
Rating:
0/5 (0 votes)

Tabs too difficult? Try these video lessons and learn fast.
                
Tuning:cgcfad


Intro
e|-------|
B|-------|
G|-------|
D|-3-----| Pickscr*p/slides/pick random strings/
A|-3-----| do what you want!
E|-3-----|


Verse
e|-------------------------------------------------------------------------|
B|-------------------------------------------------------------------------|
G|-------------------------------------------------------------------------|
D|-------------------------------------------------------------------------|
A|-1-4--3-33--8-88--4-44--7------------------------------------------------|
E|-1-4--3-33--8-88--4-44--7------------------------------------------------|


Chorus
e|-------------------------------------------------------------------------|
B|-------------------------------------------------------------------------|
G|-------------------------------------------------------------------------|
D|-------------------------------------------------------------------------|
A|-0-4--11111111-00000000--4-5-55555555-44444444---------------------------|
E|-0-4--11111111-00000000--4-5-55555555-44444444---------------------------|


Pre-verse
e|-------------------------------------------------|
B|-------------------------------------------------|
G|-------------------------------------------------|
D|-------------------------------------------------|
A|-4--------4--------4----4----4----4--------------|
E|-4-xxxxxx-4-xxxxxx-4-xx-4-xx-4-xx-4--------------|


Verse


Pre-chorus
e|-------------------------------------------------|
B|----N.H------N.H---------------------------------|
G|---555555---555555-------------------------------|
D|-------------------------------------------------|
A|-3--------3--------3----3----3----3--------------|
E|-3--------3--------3-xx-3-xx-3-xx-3--------------|


Chorus


Pre-verse

Bridge
e|----------------------------------------------------|
B|----------------------------------------------------|
G|----------------------------------------------------|
D|--------------------------------------5---5---------|
A|--------------2~----------------------5---5---------|
E|-1~--0~--1~-------4~-5~--1~--0~--1~---5---5---------|


Breakdown
e|-------------------------------------------------------|
B|-------------------------------------------------------|
G|-------------------------------------------------------|
D|-1-0-1-0-1/5-------------------------------------------|
A|-1-0-1-0-1/5--00000000---------------------------------|
E|-1-0-1-0-1/5--00000000---------------------------------|
PM              ........

Riff Behind Solo
e|-----------------------------------------------------|
B|-----------------------------------------------------|
G|-----------------------------------------------------|
D|-----------------------------------------------------|
A|-1-0-1-0-1-555555--000000----------------------------|
E|-1-0-1-0-1-555555--000000----------------------------|
PM . . . . . ......  ......


Breakdown


Outro
e|--------------|
B|--------------|
G|--------------|
D|--------------| Heavily Palm Muted
A|-0--0--0--0---|
E|-0--0--0--0---|
PM .  .  .  .
            
Tabs too difficult? Try these video lessons and learn fast.


comments powered by Disqus
↑ Back to top | Tablatures and chords are parodies/interpretations of the original songs. You may use it for private study, scholarship, research or language learning purposes only