» » »

Hollow Bass tabs (ver.2)

Artists:  A B C D E F G H I J K L M N O P Q R S T U V W X Y Z # 

Hollow Bass tabs (ver.2)

Darkest Hour
Rating:
0/5 (0 votes)

Tabs too difficult? Try these video lessons and learn fast.
                Band- Darkest Hour
Song- The Hollow

Tuning: C G C F

Intro (0:00)
F |--------|
C |--------|
G |--------|
C |--0~-0--|

Verse (0:02)
F |-----------------------------------------------------|
C |-----------------------------------------------------|
G |-----------------------------------------------------|
C |--0000000000000000-77777777-10-10-10-10-10-10-10-10--|

(this is what the guitar does)
F |------------------------------------|
C |------------------------------------|
G |--8-7-88-7-8-7-5-7-10-10-10-888-77--|
C |------------------------------------|
(0:09)
F |-------------------------------|
C |--7-5-77-5-7-5-3-5-888-777-55--|
G |-------------------------------|
C |-------------------------------|

Pre Chorus (0:25)
F |----------------------------|
C |----------------------------|
G |-----55----33----1---3---5--|
C |--00----00----00---1---3----|

Chorus (0:37)
F |-----------------------------------------------------------------|
C |-----------------------------------------------------------------|
G |-----------------------------------------------------------------|
C |-555-555-555-555-333-333-333-555-000-000-000-000-000-000-000-000-|

Pre Verse (1:01)
F |---------------|
C |---------------|
G |---------------|
C |--0~-1-3-0~-0--|

Verse (1:02)
Pre Chorus (1:19)
Chorus (1:30)

Fill 2 (1:55)
F |----------|
C |----------|
G |----------|
C |--0~--0~--|

Bridge (1:59)
F |--------------------|
C |--------------------|
G |--------------------|
C |--0000000000000000--|
(2:05)
F |------------------------------------------|
C |------------------------------------------|
G |------------------------------------------|
C |--00-12-12-00-10-10-00-8-00-8-00-8-5-5-5--|

Chorus (2:23)

Final Riff (2:55)
F |---------------------------------------------|
C |---------------------------------------------|
G |--------------------5------------------------|
C |--0000-0000-0000-00---0000-0000-33-5-3-11-0--|
            
Tabs too difficult? Try these video lessons and learn fast.




comments powered by Disqus
↑ Back to top | Tablatures and chords are parodies/interpretations of the original songs. You may use it for private study, scholarship, research or language learning purposes only