» » »

Legacy Tabs (ver.1)

Artists:  A B C D E F G H I J K L M N O P Q R S T U V W X Y Z # 

Legacy Tabs (ver.1)

Darkest Hour
Rating:
0/5 (0 votes)

Tabs too difficult? Try these video lessons and learn fast.
                I can't believe there's a bass tab for this song, but not a guitar tab...
So I tabbed this up real quick

There's no solo in the song or anything, 
but the whole thing is in triplet 8th-notes, 
so you have to alternate pick, 
which made it sort of difficult for me at least

I have the powertab if you want it
 

Gtr I (C G C F A D) - 'Untitled'
Gtr II (C G C F A D) - 'Untitled'


  Q=172
 4/4
  Gtr I
  |-3--| |-3-| |-3-| |-3-|   |-3--| |-3-| |-3-| |-3-|
  E  E E E E E E E E E E E   E  E E E E E E E E E E E
|--------------------------|--------------------------|
|--------------------------|--------------------------|
|--------------------------|--------------------------|
|--------------------------|--------------------------|
|--------5---5-------3---3-|--------5-3---8-7-5-3-5-7-|
|-0--0-0---0---0-0-0---0---|-0--0-0-----0-------------|
|
| Gtr II
| H.                         H.
|--------------------------|--------------------------|
|--------------------------|--------------------------|
|--------------------------|--------------------------|
|--------------------------|--------------------------|
|--------------------------|--------------------------|
|--------------------------|--------------------------|


  |-3--| |-3-| |-3-| |-3-|   |-3-| |-3-| |-3-| |-3-|
  E  E E E E E E E E E E E   E E E E E E E E E E E E
|--------------------------|---------------------------|
|--------------------------|---------------------------|
|--------------------------|---------------------------|
|--------------------------|-------------8-7-5---------|
|--------8---8-------7-8-8-|-5-----------------8-7-5---|
|-8--8-8---8---8-8-8-------|-5-------------------------|
|
|                                        |-3-| |-3-|
| H.                         H           E E E E E E
|--------------------------|---------------------------|
|--------------------------|---------------------------|
|--------------------------|-------------7-5-----------|
|--------------------------|-----------------8-7-5-----|
|--------------------------|-----------------------8---|
|--------------------------|---------------------------|


  $
  |-3-| |-3-| |-3-| |-3-|   |-3-| |-3-| |-3-| |-3-|
  E E E E E E E E E E E E   E E E E E E E E E E E E
|-------------------------|-------------------------|
|-------------------------|-------------------------|
|-------------------------|-------------------------|
|-------------------------|-------------------------|
|-------5---5-------3---3-|-------5-3---8-7-5-3-5-7-|
|-0-0-0---0---0-0-0---0---|-0-0-0-----0-------------|
|
| |-3-| |-3-| |-3-| |-3-|   |-3-| |-3-| |-3-| |-3-|
| E E E E E E E E E E E E   E E E E E E E E E E E E
|-------------------------|-------------------------|
|-------------------------|-------------------------|
|-------------------------|-------------------------|
|-------------------------|-------------------------|
|-------5---5-------3---3-|-------5-3---8-7-5-3-5-7-|
|-0-0-0---0---0-0-0---0---|-0-0-0-----0-------------|


  |-3-| |-3-| |-3-| |-3-|   |-3-| |-3-|  |-3-| |-3-|
  E E E E E E E E E E E E   E E E E E E  E E E E E E
|-------------------------|-----------------------------|
|-------------------------|-----------------------------|
|-------------------------|-----------------------------|
|-------------------------|-----------------------------|
|-------8---8-------7-8-8-|-------8---8-10-8-7-3-5-7----|
|-8-8-8---8---8-8-8-------|-5-5-5---5-------------------|
|
| |-3-| |-3-| |-3-| |-3-|   |-3-| |-3-|  |-3-| |-3-|
| E E E E E E E E E E E E   E E E E E E  E E E E E E
|-------------------------|-----------------------------|
|-------------------------|-----------------------------|
|-------------------------|-----------------------------|
|-------------------------|-----------------------------|
|-------8---8-------7-8-8-|-------8---8-10-8-7-3-5-7----|
|-8-8-8---8---8-8-8-------|-5-5-5---5-------------------|


  |-3-| |-3-| |-3-| |-3-|   |-3-| |-3-| |-3--| |-3--|
  E E E E E E E E E E E E   E E E E E E E  E E E E  E
|-------------------------|---------------------------|
|-------------------------|---------------------------|
|-------------------------|---------------------------|
|-------------------------|---------------------------|
|-------5---5-------3---3-|-------5-3---8--7-5-3-5--7-|
|-0-0-0---0---0-0-0---0---|-0-0-0-----0---------------|
|
| |-3-| |-3-| |-3-| |-3-|   |-3-| |-3-| |-3--| |-3--|
| E E E E E E E E E E E E   E E E E E E E  E E E E  E
|-------------------------|---------------------------|
|-------------------------|---------------------------|
|-------------------------|---------------------------|
|-------------------------|-------------7-------------|
|-------8---8-------7---7-|-------8-7-----10-8-7-8-10-|
|-0-0-0---0---0-0-0---0---|-0-0-0-----0---------------|


  |-3-|  |-3--| |-3-| |-3--|   |-3-| |-3-| |-3-| |-3-|
  E E E  E E  E E E E E E  E   E E E E E E E E E E E E
|----------------------------|----------------------------|
|----------------------------|----------------------------|
|----------------------------|----------------------------|
|----------------------------|-------------8-7-5----------|
|--------8----8-------7-8--8-|-------8---8-------8-7-5----|
|-8-8-8----8----8-8-8--------|-5-5-5---5------------------|
|
| |-3-|  |-3--| |-3-| |-3--|   |-3-| |-3-| |-3-| |-3-|
| E E E  E E  E E E E E E  E   E E E E E E E E E E E E
|----------------------------|----------------------------|
|----------------------------|----------------------------|
|----------------------------|-------------7-5------------|
|----------------------------|-------7---7-----8-7-5------|
|-------12---12-------7-8-10-|-----------------------8----|
|-8-8-8----8----8-8-8--------|-5-5-5---5------------------|


  |-3-| |-3-|  |-3-|  |-3-|   |-3-| |-3-| |-3-| |-3-|
  E E E E E E  E E E  E E E   E E E E E E E E E E E E
|---------------------------|-------------------------|
|---------------------------|-------------------------|
|---------------------------|-------------------------|
|---------------------------|-------------------------|
|-------8------------10-8-7-|-------7---7-------8---8-|
|-0-0-0---0-0-10-0-0--------|-8-8-8---8---8-8-8---8---|
|
| |-3-| |-3-|  |-3-|  |-3-|   |-3-| |-3-| |-3-| |-3-|
| E E E E E E  E E E  E E E   E E E E E E E E E E E E
|---------------------------|-------------------------|
|---------------------------|-------------------------|
|---------------------------|-------------------------|
|---------------------------|-------------------------|
|-------8------------10-8-7-|-------7---7-------8---8-|
|-0-0-0---0-0-10-0-0--------|-8-8-8---8---8-8-8---8---|


  |-3-| |-3-|  |-3-|  |-3-|   |-3-| |-3-| |-3-| |-3-|
  E E E E E E  E E E  E E E   E E E E E E E E E E E E
|---------------------------|----------------------------|
|---------------------------|----------------------------|
|---------------------------|----------------------------|
|---------------------------|----------------------------|
|-------8------------10-8-7-|-------7---7-------8---8----|
|-0-0-0---0-0-10-0-0--------|-8-8-8---8---8-8-8---8------|
|
| |-3-| |-3-|  |-3-|  |-3-|   |-3-| |-3-| |-3-| |-3-|
| E E E E E E  E E E  E E E   E E E E E E E E E E E E
|---------------------------|----------------------------|
|---------------------------|----------------------------|
|---------------------------|----------------------------|
|---------------------------|----------------------------|
|-------8------------10-8-7-|-------7---7-------8---8----|
|-0-0-0---0-0-10-0-0--------|-8-8-8---8---8-8-8---8------|


    |-3-| |-3-|  |--3--|  |--3--|   |-3-|  |--3--| |-3-| |-3-|
    E E E E E E  E  E  E  E  E  E   E E E  E  E  E E E E E E E
||--------------------------------|----------------------------|
||o-------------------------------|----------------------------|
||--------------------------------|----------------------------|
||--------------------------------|----------------------------|
||o-------8-8-8----------10-10-10-|-------10-10-10-8-8-8-7-7-7-|
||--0-0-0-------10-10-10----------|-8-8-8----------------------|
|
|   |-3-| |-3-|  |--3--|  |--3--|   |-3-|  |--3--| |-3-| |-3-|
|   E E E E E E  E  E  E  E  E  E   E E E  E  E  E E E E E E E
||--------------------------------|----------------------------|
||o-------------------------------|----------------------------|
||--------------------------------|----------------------------|
||--------------------------------|----------------------------|
||o-------8-8-8----------10-10-10-|-------10-10-10-8-8-8-7-7-7-|
||--0-0-0-------10-10-10----------|-8-8-8----------------------|


  |-3-| |-3-|  |--3--|  |--3--|   |-3-|  |--3--| |-3-| |-3-|
  E E E E E E  E  E  E  E  E  E   E E E  E  E  E E E E E E E
|-------------------------------|-------------------------------|
|-------------------------------|-------------------------------|
|-------------------------------|-------------------------------|
|-------------------------------|-------------------------------|
|-------8-8-8----------10-10-10-|-------10-10-10-8-8-8-7-7-7----|
|-0-0-0-------10-10-10----------|-8-8-8-------------------------|
|
| |-3-| |-3-|  |--3--|  |--3--|   |-3-|  |--3--| |-3-| |-3-|
| E E E E E E  E  E  E  E  E  E   E E E  E  E  E E E E E E E
|-------------------------------|-------------------------------|
|-------------------------------|-------------------------------|
|-------------------------------|-------------------------------|
|-------------------------------|----------------7-7-7-8-8-8----|
|-------8-8-8----------10-10-10-|-------10-10-10----------------|
|-0-0-0-------10-10-10----------|-8-8-8-------------------------|


  |-3-| |-3-|  |--3--|  |--3--|   |-3-|  |--3--| |-3-| |-3-|
  E E E E E E  E  E  E  E  E  E   E E E  E  E  E E E E E E E
|-------------------------------|----------------------------|
|-------------------------------|----------------------------|
|-------------------------------|----------------------------|
|-------------------------------|----------------------------|
|-------8-8-8----------10-10-10-|-------10-10-10-8-8-8-7-7-7-|
|-0-0-0-------10-10-10----------|-8-8-8----------------------|
|
| |-3-| |-3-|  |--3--|  |--3--|   |-3-|  |--3--| |-3-| |-3-|
| E E E E E E  E  E  E  E  E  E   E E E  E  E  E E E E E E E
|-------------------------------|----------------------------|
|-------------------------------|----------------------------|
|-------------------------------|----------------------------|
|-------------------------------|----------------------------|
|-------8-8-8----------10-10-10-|-------10-10-10-8-8-8-7-7-7-|
|-0-0-0-------10-10-10----------|-8-8-8----------------------|


                                                  D.S. al Fine
  |-3-| |-3-|  |--3--|  |--3--|   |-3-| |-3-| |-3-| |-3-|
  E E E E E E  E  E  E  E  E  E   E E E E E E E E E E E E
|-------------------------------|--------------------------||---|
|-------------------------------|-------------------------o||---|
|-------------------------------|--------------------------||---|
|-------------------------------|-7-7-7-7-7-7-8-8-8-8-8-8--||---|
|-8-8-8-8-8-8-10-10-10-10-10-10-|-------------------------o||---|
|-------------------------------|--------------------------||---|
|
| |-3-| |-3-|  |--3--|  |--3--|   |-3-| |-3-| |-3-| |-3-|
| E E E E E E  E  E  E  E  E  E   E E E E E E E E E E E E
|-------------------------------|--------------------------||---|
|-------------------------------|-------------------------o||---|
|-------------------------------|--------------------------||---|
|-------------------------------|-7-7-7-7-7-7-8-8-8-8-8-8--||---|
|-8-8-8-8-8-8-10-10-10-10-10-10-|-------------------------o||---|
|-------------------------------|--------------------------||---|


    |-3-| |-3-| |-3-| |-3-|   |-3-| |-3-| |-3-| |-3-|
    E E E E E E E E E E E E   E E E E E E E E E E E E
||--------------------------|-------------------------|
||o-------------------------|-------------------------|
||--------------------------|-------------------------|
||--------------------------|-------------------------|
||o-------5---5-------3---3-|-------5-3---8-7-5-3-5-7-|
||--0-0-0---0---0-0-0---0---|-0-0-0-----0-------------|
|
|   |-3-| |-3-| |-3-| |-3-|   |-3-| |-3-| |-3-| |-3-|
|   E E E E E E E E E E E E   E E E E E E E E E E E E
||--------------------------|-------------------------|
||o-------------------------|-------------------------|
||--------------------------|-------------------------|
||--------------------------|-------------------------|
||o-------5---5-------3---3-|-------5-3---8-7-5-3-5-7-|
||--0-0-0---0---0-0-0---0---|-0-0-0-----0-------------|


  |-3-| |-3-| |-3-| |-3-|   |-3-| |-3-| |-3-| |-3-|
  E E E E E E E E E E E E   E E E E E E E E E E E E     4x
|-------------------------|-----------------------------||
|-------------------------|----------------------------o||
|-------------------------|-----------------------------||
|-------------------------|-5-5-5-5-3-2-0-0-0-0-2-3-----||
|-------5---5-------3---3-|----------------------------o||
|-0-0-0---0---0-0-0---0---|-----------------------------||
|
| |-3-| |-3-| |-3-| |-3-|   |-3-| |-3-| |-3-| |-3-|
| E E E E E E E E E E E E   E E E E E E E E E E E E     4x
|-------------------------|-----------------------------||
|-------------------------|----------------------------o||
|-------------------------|-----------------------------||
|-------------------------|-8-8-8-8-7-5-3-3-3-3-5-7-----||
|-------5---5-------3---3-|----------------------------o||
|-0-0-0---0---0-0-0---0---|-----------------------------||


    W          W          W          W
||-----------|----------|----------|-------||
||o----------|----------|----------|------o||
||-----------|----------|----------|-------||
||--0--------|-3--------|-5--------|-8-----||
||o-0--------|-3--------|-5--------|-8----o||
||--0--------|-3--------|-5--------|-8-----||
|
|   W          W          W          W
||-----------|----------|----------|-------||
||o----------|----------|----------|------o||
||-----------|----------|----------|-------||
||--0--------|-3--------|-5--------|-8-----||
||o-0--------|-3--------|-5--------|-8----o||
||--0--------|-3--------|-5--------|-8-----||


    |-3-| |-3-| |-3-| |-3-|   |-3-| |-3-| |-3-| |-3-|
    E E E E E E E E E E E E   E E E E E E E E E E E E
||--------------------------|-------------------------|
||o-------------------------|-------------------------|
||--------------------------|-------------------------|
||--------------------7-7-7-|-------------------7-7-7-|
||o-------7-7-7-8-8-8-------|-3-3-3-7-7-7-8-8-8-------|
||--0-0-0-------------------|-------------------------|
|
|   |-3-| |-3-| |-3-| |-3-|   |-3-| |-3-| |-3-| |-3-|
|   E E E E E E E E E E E E   E E E E E E E E E E E E
||--------------------------|-------------------------|
||o-------------------------|-------------------------|
||--------------------------|-------------------------|
||--------------------3-3-3-|-------------------3-3-3-|
||o-------3-3-3-5-5-5-------|-3-3-3-3-3-3-5-5-5-------|
||--0-0-0-------------------|-------------------------|


  |-3-| |-3-| |-3-| |-3-|   |-3-| |-3-| |-3-| |-3-|
  E E E E E E E E E E E E   E E E E E E E E E E E E     4x
|-------------------------|-----------------------------||
|-------------------------|----------------------------o||
|-------------------------|-----------------------------||
|-------------------7-7-7-|-----------------------------||
|-------7-7-7-8-8-8-------|-------8-8-8-8-8-8-7-7-7----o||
|-9-9-9-------------------|-8-8-8-----------------------||
|
| |-3-| |-3-| |-3-| |-3-|   |-3-| |-3-| |-3-| |-3-|
| E E E E E E E E E E E E   E E E E E E E E E E E E     4x
|-------------------------|-----------------------------||
|-------------------------|----------------------------o||
|-------------------------|-----------------------------||
|-------------------3-3-3-|-------8-8-8-8-8-8-7-7-7-----||
|-2-2-2-3-3-3-5-5-5-------|-1-1-1----------------------o||
|-------------------------|-----------------------------||


                            |-3-|
  W                         E E E Q     Q     Q
|-------------------------|-------------------------|
|-------------------------|-------------------------|
|-------------------------|-------------------------|
|-------------------------|-------------------------|
|-0-----------------------|-0-----------------------|
|-0-----------------------|-0-----------------------|
|
| |-3-| |-3-| |-3-| |-3-|   |-3-| |-3-| |-3-| |-3-|
| E E E E E E E E E E E E   E E E E E E E E E E E E
|-------------------------|-------------------------|
|-------------------------|-------------------------|
|-------------------------|-------------------------|
|-------------------------|-------------------------|
|-------5---5-------3---3-|-------5-3---8-7-5-3-5-7-|
|-0-0-0---0---0-0-0---0---|-0-0-0-----0-------------|


                            |-3-| |-3-|  |-3-| |-3-|
  W                         E E E E E E  E E E E E E
|-------------------------|-----------------------------|
|-------------------------|-----------------------------|
|-------------------------|-----------------------------|
|-------------------------|-----------------------------|
|-8-----------------------|-5------------5--------------|
|-8-----------------------|-5------------5--------------|
|
| |-3-| |-3-| |-3-| |-3-|   |-3-| |-3-|  |-3-| |-3-|
| E E E E E E E E E E E E   E E E E E E  E E E E E E
|-------------------------|-----------------------------|
|-------------------------|-----------------------------|
|-------------------------|-----------------------------|
|-------------------------|-----------------------------|
|-------8---8-------7-8-8-|-------8---8-10-8-7-3-5-7----|
|-8-8-8---8---8-8-8-------|-5-5-5---5-------------------|


  |-3-| |-3-| |-3-| |-3-|   |-3-| |-3-| |-3-| |-3-|
  E E E E E E E E E E E E   E E E E E E E E E E E E
|-------------------------|-------------------------|
|-------------------------|-------------------------|
|-------------------------|-------------------------|
|-------------------------|-------------------------|
|-------5---5-------3---3-|-------5-3---8-7-5-3-5-7-|
|-0-0-0---0---0-0-0---0---|-0-0-0-----0-------------|
|
| |-3-| |-3-| |-3-| |-3-|   |-3-| |-3-| |-3-| |-3-|
| E E E E E E E E E E E E   E E E E E E E E E E E E
|-------------------------|-------------------------|
|-------------------------|-------------------------|
|-------------------------|-------------------------|
|-------------------------|-------------------------|
|-------5---5-------3---3-|-------5-3---8-7-5-3-5-7-|
|-0-0-0---0---0-0-0---0---|-0-0-0-----0-------------|


  |-3-| |-3-| |-3-| |-3-|   |-3-| |-3-|  |-3-| |-3-|
  E E E E E E E E E E E E   E E E E E E  E E E E E E
|-------------------------|-----------------------------|
|-------------------------|-----------------------------|
|-------------------------|-----------------------------|
|-------------------------|-----------------------------|
|-------8---8-------7-8-8-|-------8---8-10-8-7-3-5-7----|
|-8-8-8---8---8-8-8-------|-5-5-5---5-------------------|
|
| |-3-| |-3-| |-3-| |-3-|   |-3-| |-3-|  |-3-| |-3-|
| E E E E E E E E E E E E   E E E E E E  E E E E E E
|-------------------------|-----------------------------|
|-------------------------|-----------------------------|
|-------------------------|-----------------------------|
|-------------------------|-----------------------------|
|-------8---8-------7-8-8-|-------8---8-10-8-7-3-5-7----|
|-8-8-8---8---8-8-8-------|-5-5-5---5-------------------|


  |-3-| |-3-| |-3-| |-3-|   |-3-| |-3-| |-3--| |-3--|
  E E E E E E E E E E E E   E E E E E E E  E E E E  E
|-------------------------|---------------------------|
|-------------------------|---------------------------|
|-------------------------|---------------------------|
|-------------------------|---------------------------|
|-------5---5-------3---3-|-------5-3---8--7-5-3-5--7-|
|-0-0-0---0---0-0-0---0---|-0-0-0-----0---------------|
|
| |-3-| |-3-| |-3-| |-3-|   |-3-| |-3-| |-3--| |-3--|
| E E E E E E E E E E E E   E E E E E E E  E E E E  E
|-------------------------|---------------------------|
|-------------------------|---------------------------|
|-------------------------|---------------------------|
|-------------------------|-------------7-------------|
|-------8---8-------7---7-|-------8-7-----10-8-7-8-10-|
|-0-0-0---0---0-0-0---0---|-0-0-0-----0---------------|


  |-3-|  |-3--| |-3-| |-3--|   |-3-| |-3-| |-3-| |-3-|
  E E E  E E  E E E E E E  E   E E E E E E E E E E E E
|----------------------------|----------------------------|
|----------------------------|----------------------------|
|----------------------------|----------------------------|
|----------------------------|-------------8-7-5----------|
|--------8----8-------7-8--8-|-------8---8-------8-7-5----|
|-8-8-8----8----8-8-8--------|-5-5-5---5------------------|
|
| |-3-|  |-3--| |-3-| |-3--|   |-3-| |-3-| |-3-| |-3-|
| E E E  E E  E E E E E E  E   E E E E E E E E E E E E
|----------------------------|----------------------------|
|----------------------------|----------------------------|
|----------------------------|-------------7-5------------|
|----------------------------|-------7---7-----8-7-5------|
|-------12---12-------7-8-10-|-----------------------8----|
|-8-8-8----8----8-8-8--------|-5-5-5---5------------------|


  |-3-| |-3-|  |-3-|  |-3-|   |-3-| |-3-| |-3-| |-3-|
  E E E E E E  E E E  E E E   E E E E E E E E E E E E
|---------------------------|-------------------------|
|---------------------------|-------------------------|
|---------------------------|-------------------------|
|---------------------------|-------------------------|
|-------8------------10-8-7-|-------7---7-------8---8-|
|-0-0-0---0-0-10-0-0--------|-8-8-8---8---8-8-8---8---|
|
| |-3-| |-3-|  |-3-|  |-3-|   |-3-| |-3-| |-3-| |-3-|
| E E E E E E  E E E  E E E   E E E E E E E E E E E E
|---------------------------|-------------------------|
|---------------------------|-------------------------|
|---------------------------|-------------------------|
|---------------------------|-------------------------|
|-------8------------10-8-7-|-------7---7-------8---8-|
|-0-0-0---0-0-10-0-0--------|-8-8-8---8---8-8-8---8---|


  |-3-| |-3-|  |-3-|  |-3-|   |-3-| |-3-| |-3-| |-3-|
  E E E E E E  E E E  E E E   E E E E E E E E E E E E
|---------------------------|----------------------------|
|---------------------------|----------------------------|
|---------------------------|----------------------------|
|---------------------------|----------------------------|
|-------8------------10-8-7-|-------7---7-------8---8----|
|-0-0-0---0-0-10-0-0--------|-8-8-8---8---8-8-8---8------|
|
| |-3-| |-3-|  |-3-|  |-3-|   |-3-| |-3-| |-3-| |-3-|
| E E E E E E  E E E  E E E   E E E E E E E E E E E E
|---------------------------|----------------------------|
|---------------------------|----------------------------|
|---------------------------|----------------------------|
|---------------------------|----------------------------|
|-------8------------10-8-7-|-------7---7-------8---8----|
|-0-0-0---0-0-10-0-0--------|-8-8-8---8---8-8-8---8------|


    |-3-| |-3-|  |--3--|  |--3--|   |-3-|  |--3--| |-3-| |-3-|
    E E E E E E  E  E  E  E  E  E   E E E  E  E  E E E E E E E
||--------------------------------|----------------------------|
||o-------------------------------|----------------------------|
||--------------------------------|----------------------------|
||--------------------------------|----------------------------|
||o-------8-8-8----------10-10-10-|-------10-10-10-8-8-8-7-7-7-|
||--0-0-0-------10-10-10----------|-8-8-8----------------------|
|
|   |-3-| |-3-|  |--3--|  |--3--|   |-3-|  |--3--| |-3-| |-3-|
|   E E E E E E  E  E  E  E  E  E   E E E  E  E  E E E E E E E
||--------------------------------|----------------------------|
||o-------------------------------|----------------------------|
||--------------------------------|----------------------------|
||--------------------------------|----------------------------|
||o-------8-8-8----------10-10-10-|-------10-10-10-8-8-8-7-7-7-|
||--0-0-0-------10-10-10----------|-8-8-8----------------------|


  |-3-| |-3-|  |--3--|  |--3--|   |-3-|  |--3--| |-3-| |-3-|
  E E E E E E  E  E  E  E  E  E   E E E  E  E  E E E E E E E
|-------------------------------|-------------------------------|
|-------------------------------|-------------------------------|
|-------------------------------|-------------------------------|
|-------------------------------|-------------------------------|
|-------8-8-8----------10-10-10-|-------10-10-10-8-8-8-7-7-7----|
|-0-0-0-------10-10-10----------|-8-8-8-------------------------|
|
| |-3-| |-3-|  |--3--|  |--3--|   |-3-|  |--3--| |-3-| |-3-|
| E E E E E E  E  E  E  E  E  E   E E E  E  E  E E E E E E E
|-------------------------------|-------------------------------|
|-------------------------------|-------------------------------|
|-------------------------------|-------------------------------|
|-------------------------------|----------------7-7-7-8-8-8----|
|-------8-8-8----------10-10-10-|-------10-10-10----------------|
|-0-0-0-------10-10-10----------|-8-8-8-------------------------|


  |-3-| |-3-|  |--3--|  |--3--|   |-3-|  |--3--| |-3-| |-3-|
  E E E E E E  E  E  E  E  E  E   E E E  E  E  E E E E E E E
|-------------------------------|----------------------------|
|-------------------------------|----------------------------|
|-------------------------------|----------------------------|
|-------------------------------|----------------------------|
|-------8-8-8----------10-10-10-|-------10-10-10-8-8-8-7-7-7-|
|-0-0-0-------10-10-10----------|-8-8-8----------------------|
|
| |-3-| |-3-|  |--3--|  |--3--|   |-3-|  |--3--| |-3-| |-3-|
| E E E E E E  E  E  E  E  E  E   E E E  E  E  E E E E E E E
|-------------------------------|----------------------------|
|-------------------------------|----------------------------|
|-------------------------------|----------------------------|
|-------------------------------|----------------------------|
|-------8-8-8----------10-10-10-|-------10-10-10-8-8-8-7-7-7-|
|-0-0-0-------10-10-10----------|-8-8-8----------------------|


  |-3-| |-3-|  |--3--|  |--3--|   |-3-| |-3-| |-3-| |-3-|
  E E E E E E  E  E  E  E  E  E   E E E E E E E E E E E E
|-------------------------------|--------------------------||---|
|-------------------------------|-------------------------o||---|
|-------------------------------|--------------------------||---|
|-------------------------------|-7-7-7-7-7-7-8-8-8-8-8-8--||---|
|-8-8-8-8-8-8-10-10-10-10-10-10-|-------------------------o||---|
|-------------------------------|--------------------------||---|
|
| |-3-| |-3-|  |--3--|  |--3--|   |-3-| |-3-| |-3-| |-3-|
| E E E E E E  E  E  E  E  E  E   E E E E E E E E E E E E
|-------------------------------|--------------------------||---|
|-------------------------------|-------------------------o||---|
|-------------------------------|--------------------------||---|
|-------------------------------|-7-7-7-7-7-7-8-8-8-8-8-8--||---|
|-8-8-8-8-8-8-10-10-10-10-10-10-|-------------------------o||---|
|-------------------------------|--------------------------||---|


  |-3-| |-3-| |-3-| |-3-|   |-3-| |-3-| |-3-| |-3-|
  E E E E E E E E E E E E   E E E E E E E E E E E E
|-------------------------|----------------------------|
|-------------------------|----------------------------|
|-------------------------|----------------------------|
|-------------------------|---------------5-5-5-5-5----|
|-2---2-2-2-2-2---2-2-2-2-|-2---2-2-2-2-2-2-2-2-2-2----|
|-2---2-2-2-2-2---2-2-2-2-|-2---2-2-2-2-2-2-2-2-2-2----|
|
| |-3-| |-3-| |-3-| |-3-|   |-3-| |-3-| |-3-| |-3-|
| E E E E E E E E E E E E   E E E E E E E E E E E E
|-------------------------|----------------------------|
|-------------------------|----------------------------|
|-------------------------|----------------------------|
|-------------------------|---------------5-5-5-5-5----|
|-2---2-2-2-2-2---2-2-2-2-|-2---2-2-2-2-2-2-2-2-2-2----|
|-2---2-2-2-2-2---2-2-2-2-|-2---2-2-2-2-2-2-2-2-2-2----|


    W          W          W          W
||-----------|----------|----------|-------||
||o----------|----------|----------|------o||
||-----------|----------|----------|-------||
||--0--------|-3--------|-5--------|-8-----||
||o-0--------|-3--------|-5--------|-8----o||
||--0--------|-3--------|-5--------|-8-----||
|
|   W          W          W          W
||-----------|----------|----------|-------||
||o----------|----------|----------|------o||
||-----------|----------|----------|-------||
||--0--------|-3--------|-5--------|-8-----||
||o-0--------|-3--------|-5--------|-8----o||
||--0--------|-3--------|-5--------|-8-----||


    |-3-| |-3-| |-3-| |-3-|   |-3-| |-3-| |-3-| |-3-|
    E E E E E E E E E E E E   E E E E E E E E E E E E
||--------------------------|-------------------------|
||o-------------------------|-------------------------|
||--------------------------|-------------------------|
||--------------------7-7-7-|-------------------7-7-7-|
||o-------7-7-7-8-8-8-------|-3-3-3-7-7-7-8-8-8-------|
||--0-0-0-------------------|-------------------------|
|
|   |-3-| |-3-| |-3-| |-3-|   |-3-| |-3-| |-3-| |-3-|
|   E E E E E E E E E E E E   E E E E E E E E E E E E
||--------------------------|-------------------------|
||o-------------------------|-------------------------|
||--------------------------|-------------------------|
||--------------------3-3-3-|-------------------3-3-3-|
||o-------3-3-3-5-5-5-------|-3-3-3-3-3-3-5-5-5-------|
||--0-0-0-------------------|-------------------------|


  |-3-| |-3-| |-3-| |-3-|   |-3-| |-3-| |-3-| |-3-|
  E E E E E E E E E E E E   E E E E E E E E E E E E     4x
|-------------------------|-----------------------------||
|-------------------------|----------------------------o||
|-------------------------|-----------------------------||
|-------------------7-7-7-|-----------------------------||
|-------7-7-7-8-8-8-------|-------8-8-8-8-8-8-7-7-7----o||
|-9-9-9-------------------|-8-8-8-----------------------||
|
| |-3-| |-3-| |-3-| |-3-|   |-3-| |-3-| |-3-| |-3-|
| E E E E E E E E E E E E   E E E E E E E E E E E E     4x
|-------------------------|-----------------------------||
|-------------------------|----------------------------o||
|-------------------------|-----------------------------||
|-------------------3-3-3-|-------8-8-8-8-8-8-7-7-7-----||
|-2-2-2-3-3-3-5-5-5-------|-1-1-1----------------------o||
|-------------------------|-----------------------------||


  |-3-| |-3-| |-3-| |-3-|   |-3-| |-3-| |-3-| |-3-|
  E E E E E E E E E E E E   E E E E E E E E E E E E
|-------------------------|----------------------------|
|-------------------------|----------------------------|
|-------------------------|----------------------------|
|-------------------------|---------------5-5-5-5-5----|
|-2---2-2-2-2-2---2-2-2-2-|-2---2-2-2-2-2-2-2-2-2-2----|
|-2---2-2-2-2-2---2-2-2-2-|-2---2-2-2-2-2-2-2-2-2-2----|
|
| |-3-| |-3-| |-3-| |-3-|   |-3-| |-3-| |-3-| |-3-|
| E E E E E E E E E E E E   E E E E E E E E E E E E
|-------------------------|----------------------------|
|-------------------------|----------------------------|
|-------------------------|----------------------------|
|-------------------------|---------------5-5-5-5-5----|
|-2---2-2-2-2-2---2-2-2-2-|-2---2-2-2-2-2-2-2-2-2-2----|
|-2---2-2-2-2-2---2-2-2-2-|-2---2-2-2-2-2-2-2-2-2-2----|


  W
|------|
|------|
|------|
|------|
|-0----|
|-0----|
|
| W
|------|
|------|
|------|
|------|
|-0----|
|-0----|




The End

Please rate and comment
I'd really appreciate it
            
Tabs too difficult? Try these video lessons and learn fast.


comments powered by Disqus
↑ Back to top | Tablatures and chords are parodies/interpretations of the original songs. You may use it for private study, scholarship, research or language learning purposes only