» » »

Diabolis Interium Tabs (ver.1)

Artists:  A B C D E F G H I J K L M N O P Q R S T U V W X Y Z # 

Diabolis Interium Tabs (ver.1)

Dark Funeral
Rating:
0/5 (0 votes)

Tabs too difficult? Try these video lessons and learn fast.
                Band- Dark Funeral
Song- Diabolis Interium

e|---------------------|-----------------------|
B|---------------------|-----------------------|
G|---------------------|-----------------------|
D|----5"7"--10"9"7"9"--|----5"7"--7"6"--6"-----|
A|--5"----7"-----------|--5"----7"----7"-------|
E|---------------------|-----------------------|


 RIFF 2 (guitarras 1 e 2)
e|-------------------------------------------------|
B|-------------------------------------------------|
G|-8888888999999911111112121288888889999999444444--|
D|-8888888999999911111112121288888889999999444444--|
A|-666666677777779-9-9-10101066666667777777222222--|
E|-------------------------------------------------|

e|---------------------------------------------|
B|---------------------------------------------|
G|-888888899999991111111212128888888999444444--|
D|-888888899999991111111212128888888999444444--|
A|-666666677777779-9-9-1010106666666777222222--|
E|---------------------------------------------|



 *****=>=>=> R E P E T E    " R I F F   1 "<=<=<=******



RIFF 3
   guitarra 1
e|------------------|-------------------------||------------------|--------------------------|
B|------------------|-------------------------||------------------|--------------------------|
G|-7-8-7------787---|-10-11-10-------101110---||-7-8-7------787---|-10-11-10----13-12-10-11--|
D|-------9-10-------|----------11-12----------||-------9-10-------|----------12--------------|
A|------------------|-------------------------||------------------|--------------------------|
E|------------------|-------------------------||------------------|--------------------------|
 | guitarra 2       |                         ||                  |                          | 
e|------------------|-------------------------||------------------|--------------------------|
B|------------------|-------------------------||------------------|--------------------------|
G|------------------|-------------------------||------------------|--------------------------|
D|-11----8----------|-5--------7--------------||-11----8----------|-9--------10--------------|
A|-9-----8----------|-5--------7--------------||-9-----8----------|-7--------10--------------|
E|-9-----6----------|-5--------5--------------||-9-----6----------|-7--------8---------------|
   ..  ..  ..  ..     ..      ..                 ..    ..           ..       ..

 
RIFF 4 || 2x  ||||||||| 2x ||||||
e|--------------|--------------||
B|--------------|--------------||
G|-777711111111-|-55558888-----||REPETE 2x
D|-777711111111-|-55556666-----||
A|-55559-9-9-9--|-33336666-----||
E|--------------|--------------||

 RIFF 5  2x 
e|------------------|-------------------||----------------||
B|------------------|-------------------||----------------||
G|6/7-7-7--7--------|6/7-7-7--7---------||3/4-4-4--6-6-6--||
D|6/7-7-7--7--8-8-8-|6/7-7-7--7--101010-||3/4-4-4--6-6-6--||
A|4/5-5-5--5--8-8-8-|4/5-5-5--5--101010-||1/2-2-2--4-4-4--||
E|------------6-6-6-|------------8-8-8--||----------------||





  *****=>=>=>R E P E T E   " R I F F   3 "<=<=<=*****

  *****=>=>=>R E P E T E   " R I F F   2 "<=<=<=*****





 RIFF 6  4x                                     | FINAL (RIFF 6)  
e|----------------------------------------------|-----|
B|----------------------------------------------|-----|
G|9-9-9-9--5-5-5-5--9-9-9-9--10-10--7-7--9/10-9-|-(7)-|
D|9-9-9-9--5-5-5-5--9-9-9-9--10-10--7-7--9/10-9-|-(7)-|
A|7-7-7-7--3-3-3-3--7-7-7-7--8--8---5-5--7/8--7-|-(5)-|
E|7-7-7-7--3-3-3-3--7-7-7-7--8--8---5-5--7/8--7-|-(5)-|




   *****=>=>=>R E P E T E    "R I F F  4"<=<=<=****

   *****=>=>=>R E P E T E    "R I F F  6"<=<=<=**** 

 FINAL
e|----||
B|----||
G|9--||
D|9--||
A|7--||
E|7--||
            
Tabs too difficult? Try these video lessons and learn fast.




comments powered by Disqus
↑ Back to top | Tablatures and chords are parodies/interpretations of the original songs. You may use it for private study, scholarship, research or language learning purposes only