» » »

Holy Diver Tabs (ver.8)

Artists:  A B C D E F G H I J K L M N O P Q R S T U V W X Y Z # 

Holy Diver Tabs (ver.8)

Dio
Rating:
0/5 (0 votes)

Tabs too difficult? Try these video lessons and learn fast.
                Holy Diver Solo - Dio

I've been trying to learn the Holy Diver solo but all the tabs on this
and edited and fixed some mistakes. This is the final product and I think
its pretty good but their might be some mistakes because I'm not perfect.


PM = Palm Mute
b = Bend
r = Release
~ = Vibrato
/ = slide up
\ = slide down
h = hammer-on
p = pull-off
* = Pinch Harmonic
(x) = Let Note Ring

e|----------------------------------------------------------------||
B|-10b11r10-8-----------------------------------------------------||
G|-10b11r10-8-10-*8----------8\7-5-5~-----------------------------||
D|------------------10-8-8~--8\7-5-5~--5--------------------------||
A|---------------------------------------8--6-5~-\\---------------||
E|----------------------------------------------------------------||
                      |_|
                      PM 

e|----------------------------------------------------------------||
B|----------------------------------------------------------------||
G|-8----8-6-(8)--7-(7)--------------------------------------*5~---||
D|---10-8-6-(8)--7-(7)--8--10--10~---8----------------------------||
A|-------------------------------------10-9--8--6--8b9r8~---------||
E|----------------------------------------------------------------||
                                      |__________|
                                           PM
                                        
e|-18b19-16-15----------------18----------------------------------||
B|-------------16-15-18-16-15----16-15~---------------------------||
G|----------------------------------------------------------------||
D|----------------------------------------------------------------||
A|----------------------------------------------------------------||
E|----------------------------------------------------------------||



e|-18-16-15-------------------------------------------------------||
B|----------18-16-15-16-15----------------------------------------||
G|-------------------------17-15-17-17b19r17-15----15-15~\--------||
D|----------------------------------------------17----------------||
A|----------------------------------------------------------------||
E|----------------------------------------------------------------||



e|-----4-3---6----------------------------------------------------||
B|-4-6-----4---4-3-6-4-3----------------------------8-9-----------||
G|-----------------------5-5-7-7-7-8-8--8/10--10-10---------------||
D|----------------------------------------------------------------||
A|----------------------------------------------------------------||
E|----------------------------------------------------------------||
   |__________________________________|
                   PM






e|----------------------------------------------------------------||
B|-*8h9p8p6---*8-9---*8h9p8p6--------*8-9---*8h9p8p6--------*8-9--||
G|-----------------------------7-8-8-----------------7-8-8--------||
D|----------------------------------------------------------------||
A|----------------------------------------------------------------||
E|----------------------------------------------------------------||



e|----------------------------------------------------------------||
B|--*8h9p8p6---6-8-6----------------------------------------------||
G|-------------------8-7-8-7h8p7p5--------------------------------||
D|---------------------------------8-8~---------------------------||
A|----------------------------------------------------------------||
E|----------------------------------------------------------------||



e|----------------------------------------------------------------||
B|-*8-9---*8h9p8p6--*8-6-------*8-9---*8h9p8p6---6-*8-*9--9-------||
G|-----------------------7-8-8-----------------8------------------||
D|----------------------------------------------------------------||
A|----------------------------------------------------------------||
E|----------------------------------------------------------------||



e|-11-10-8--------11-10-8-----------------------------------------||
B|--------11-9-8----------11-9-8-9p8----8h9p8---------------------||
G|-----------------------------------10-------10--8-7-7/8-8-------||
D|----------------------------------------------------------------||
A|----------------------------------------------------------------||
E|----------------------------------------------------------------||



e|----------------------------------------------------------------||
B|------------------11-11-11—9-9-9-8------------------------------||
G|-8/10-10-10/12-12----------------------10-8-10b11-8-7~----------||
D|----------------------------------------------------------------||
A|----------------------------------------------------------------||
E|----------------------------------------------------------------||
            
Tabs too difficult? Try these video lessons and learn fast.


comments powered by Disqus
↑ Back to top | Tablatures and chords are parodies/interpretations of the original songs. You may use it for private study, scholarship, research or language learning purposes only