» » »

Shame On The Night Tabs (ver.2)

Artists:  A B C D E F G H I J K L M N O P Q R S T U V W X Y Z # 

Shame On The Night Tabs (ver.2)

Dio
Rating:
0/5 (0 votes)
Tabs too difficult? Try these video lessons and learn fast.
                (Intro)
E|------------------------|---------------------------|
B|------------------------|---------------------------|
G|------------------------|---------------------------|
D|---------3^-------------|---------3^----------------|
A|--0-3-5-----5----3-3/5v-|--0-3-5------5-------------|
E|------------------------|------------------5-5/3v---|

E|------------------------|---------------------------|
B|------------------------|---------------------------|
G|------------------------|---------------------------|
D|---------3^-----7-7/5v--|--------3^-----------------|
A|--0-3-5-----5-----------|-0-3-5------5---7/5--------|
E|------------------------|----------------5/3--------|
            
Tabs too difficult? Try these video lessons and learn fast.


comments powered by Disqus
↑ Back to top | Tablatures and chords are parodies/interpretations of the original songs. You may use it for private study, scholarship, research or language learning purposes only