» » »

Heavy Fuel Tabs (ver.2)

Artists:  A B C D E F G H I J K L M N O P Q R S T U V W X Y Z # 

Heavy Fuel Tabs (ver.2)

Dire Straits
Rating:
2/5 (3 votes)

Tabs too difficult? Try these video lessons and learn fast.
                Heavy Fuel By Dire Straits (Live Version on the night)

B = Bend
< = Slide

Intro:
Drums first then guitar:

E-------------------------------------------------------------|
H-8B--------8-------------------------------------------------|
G-----9-7-9------9----9-7--9-7--9-7--9-7--9-7-----------------|
D------------------------9----9----9----9----9-7-5-7-5-7<9----|
A----------------------------------------------------------7--|
E-------------------------------------------------------------|

E-------------------------------------------------------------|
H-------------------------------------------------------------|
G-------------------------------------------------------------|
D-------------------------------------------------------------|
A--5-7-5-7-5-7-5-7-----2-2-0----------------------------------|
E----------------------------3-0------------------------------|

E------------10--12-10--12-10--12-10----12-10----10-12--------|
H----8-10B-12---------12-----12------12-------12------12------|
G--9----------------------------------------------------------|
D-------------------------------------------------------------|
A-------------------------------------------------------------|
E-------------------------------------------------------------|

E-------------------------------------------------------------|
H--10--12--10-------------------------------------------------|
G-------------12-7<9--------4-4-------------------------------|
D-------------------------------7-5---------------------------|
A-----------------------------------7-------------------------|
E-------------------------------------------------------------|

Intro 2:

E-------------------------------------------------------------|
H-------------------------------------------------------------|
G-------------------------------------------------------------|
D-----9-9---9----9-9---9----9-9---9----9-----7----------------|
A---7-----7----7-----7----7-----7--------------10-7-----------|
E---------------------------------------------------10--------|

Intro 3: Hole band enters:


E-------------------------------------------------------------|
H-------------------------------------------------------------|
G-------------------------------------------------------------|
D--9-9--9-9--9-7----------9-9--9-9--9-7-----------------------|
A--7-7--7-7--7-7-10-7-----7-7--7-7--7-7-10-7------------------|
E---------------------10---------------------10---------------|

E-------------------------------------------------------------|
H-------------------------------------------------------------|
G-----------------------------------7-------------------------|
D--9-9--9-9--9-7----------9-9--9-9--7-------------------------|
A--7-7--7-7--7-7-10-7-----7-7--7-7----------------------------|
E---------------------10--------------------------------------|

Intro 4:

E--------------------------------------------------------------|
H--------------------------------------------------------------|
G------------------------------------------------------2-0-2-0-|
D---2-2-4-2-----2--2-2-2--2-2--2---2-2-4-2-----2--2-2--2-0-2-0-|
A---2-2-2-2-4-2-2--2-2-4B-2-4B-2---2-2-2-2-4-2-2--2-2----------|
E--------------------------------------------------------------|


E-------------------------------------------------------------|
H-------------------------------------------------------------|
G--------------------------------------------------------2B---|
D---2-2-4-2-----2--2-2-2--2-2--2-----2-2-4-2-----2--2-2--2B---|
A---2-2-2-2-4-2-2--2-2-4B-2-4B-2-----2-2-2-2-4-2-2--2-2-------|
E-------------------------------------------------------------|

Verse:

      Last time I was sober,        man I felt bad

E-------------------------------------------------------------|
H-------------------------------------------------------------|
G-------------------------------------------------------------|
D------9-----------9--------9--------9----------9-------------|
A------7-----------7--------7--------7----------7-------5B----|
E-------------------------------------------------------------|

         Worst  hangover    that I ever had          (It took)

E-------------------------------------------------------------|
H-------------------------------------------------------------|
G-------------------------------------------------------------|
D------9-----------9--------9--------9----------9-------------|
A------7-----------7--------7--------7----------7---------5B--|
E-------------------------------------------------------------|

            six hamburgers     and scotch all night

E-------------------------------------------------------------|
H-------------------------------------------------------------|
G-------------------------------------------------------------|
D------9-----------9--------9--------9----------9-------------|
A------7-----------7--------7--------7----------7---------5B--|
E-------------------------------------------------------------|

       Nicotine for breakfast just to put me right

E-------------------------------------------------------------|
H-------------------------------------------------------------|
G-------------------------------------------------------------|
D------9-----------9--------9--------9----------9-------------|
A------7-----------7--------7--------7----------7-------------|
E-------------------------------------------------------------|

Chorus:

    Cause if you wanna run cool

E-------------------------------------------------------------|
H-------------------------------------------------------------|
G-------------------------------------------------------------|
D-----------------5-----5---5-5-------3-5--5--5--5------------|
A-----------------3-----3---3-3-------3-3--3--3--3------------|
E-------------------------------------------------------------|


          If you wanna run cool

E-------------------------------------------------------------|
H-------------------------------------------------------------|
G-------------------------------------------------------------|
D-----------------7-----7---7-7-------5----7--7--7--7---------|
A-----------------5-----5---5-5-------5----5--5--5--5---------|
E-------------------------------------------------------------|

      Yes If you wanna run cool, you got to run

E-------------------------------------------------------------|
H-------------------------------------------------------------|
G-------------------------------------------------------------|
D-----------------5-----5---5-5-------5------5--5--5--5-------|
A-----------------3-----3---3-3-------7------7--7--7--7-------|
E-------------------------------------------------------------|

       On heavy, heavy fuel

E-------------------------------------------------------------|
H-------------------------------------------------------------|
G-------------------------------------------------------------|
D-----------9-------9---9-9----7-9--9--9----------------------|
A-----------7-------7---7-7----7-7--7--7----------------------|
E-------------------------------------------------------------|

               Heavy, Heavy fuel

E-------------------------------------------------------------|
H-------------------------------------------------------------|
G-------------------------------------------------------------|
D-----------------5-----5---5-5-------3-5--5--5--5------------|
A-----------------3-----3---3-3-------3-3--3--3--3------------|
E-------------------------------------------------------------|

               Heavy, Heavy fuel

E-------------------------------------------------------------|
H-------------------------------------------------------------|
G-------------------------------------------------------------|
D-----------------5-----5---5-5-------3-5--5--5--5------------|
A-----------------3-----3---3-3-------3-3--3--3--3------------|
E-------------------------------------------------------------|

E-------------------------------------------------------------|
H-------------------------------------------------------------|
G-----------------------------------7-------------------------|
D--9-9--9-9--9-7----------9-9--9-9--7-------------------------|
A--7-7--7-7--7-7-10-7-----7-7--7-7----------------------------|
E---------------------10--------------------------------------|

E--------------------------------------------------------------|
H--------------------------------------------------------------|
G------------------------------------------------------2-0-2-0-|
D---2-2-4-2-----2--2-2-2--2-2--2---2-2-4-2-----2--2-2--2-0-2-0-|
A---2-2-2-2-4-2-2--2-2-4B-2-4B-2---2-2-2-2-4-2-2--2-2----------|
E--------------------------------------------------------------|
            
Tabs too difficult? Try these video lessons and learn fast.




comments powered by Disqus
↑ Back to top | Tablatures and chords are parodies/interpretations of the original songs. You may use it for private study, scholarship, research or language learning purposes only