>
 >
On Every Street

On Every Street Bass Tabs

Dire Straits - On Every Street chords, tabs, tablatures, lyrics

Guitar lessons | Add/correct | Request | Top 50 tabs Artists:  A B C D E F G H I J K L M N O P Q R S T U V W X Y Z 0-9

On Every Street Bass Tabs – Dire Straits

CD, Sheet music, Poster

Do you like On Every Street? Share with your friends now
Bass TabsBass Tabs v2ChordsChords v2TabsTabs v2Tabs v3Tabs v4Ukulele
     
     
                             On Every Street
                              Dire Straits
                             On Every Street

                                              Words & music by Mark Knopfler

     W            W           H           W                 
G||-----------|------------|-----------|--------------|
D||-----------|------------|-----------|--------------|
A||-----------|------------|-----------|--------------|
E||-----------|------------|-----------|--------------|

  W          W                W               H         
|------------|--------------|----------------|-----------|
|------------|--------------|----------------|-----------|
|------------|--------------|----------------|-----------|
|------------|--------------|----------------|-----------|

  W               W               W              W                 
|---------------|--------------|--------------|----------------|
|---------------|--------------|--------------|----------------|
|---------------|--------------|--------------|----------------|
|---------------|--------------|--------------|----------------|

  W                W              W          W                 
|---------------|------------|-------------|---------------|
|---------------|------------|-------------|---------------|
|---------------|------------|-------------|---------------|
|---------------|------------|-------------|---------------|

  H           W             W                   W                 
|-----------|------------|----------------|-------------------|
|-----------|------------|----------------|-------------------|
|-----------|------------|----------------|-------------------|
|-----------|------------|----------------|-------------------|

  W                   W            W               W                 
|--------------|--------------|---------------|----------------|
|--------------|--------------|---------------|----------------|
|--------------|--------------|---------------|----------------|
|--------------|--------------|---------------|----------------|

  W               W                   W               W                 
|--------------|----------------|---------------|----------------|
|--------------|----------------|---------------|----------------|
|--------------|----------------|---------------|----------------|
|--------------|----------------|---------------|----------------|

   W              W                   W                   H         
|-------------|---------------|--------------|-----------|
|-------------|---------------|--------------|-----------|
|-------------|---------------|--------------|-----------|
|-------------|---------------|--------------|-----------|

  W                W            W              W                 
|------------|-------------|----------------|-----------------|
|------------|-------------|----------------|-----------------|
|------------|-------------|----------------|-----------------|
|------------|-------------|----------------|-----------------|

   H           W                W                   W                 
|-----------|---------------|----------------|----------------|
|-----------|---------------|----------------|----------------|
|-----------|---------------|----------------|----------------|
|-----------|---------------|----------------|----------------|

  W                   W              W              W                 
|---------------|--------------|--------------|-----------------|
|---------------|--------------|--------------|-----------------|
|---------------|--------------|--------------|-----------------|
|---------------|--------------|--------------|-----------------|

  W                   H           W                   W                 
|----------------|----------|------------------|------------------|
|----------------|----------|------------------|------------------|
|----------------|----------|------------------|------------------|
|----------------|----------|------------------|------------------|

  W                  W                 W                  W                 
|----------------|----------------|----------------|----------------|
|----------------|----------------|----------------|----------------|
|----------------|----------------|----------------|----------------|
|----------------|----------------|----------------|----------------|

  W                 W                  W                 W                 
|----------------|------------------|-----------------|-------------------|
|----------------|------------------|-----------------|-------------------|
|----------------|--0---------------|--L--------------|--L----------------|
|----------------|------------------|-----------------|-------------------|

  W                   W                   Q.     H        E   
|-------------------|-------------------|---------------------|
|-------------------|-------------------|---------------------|
|--L----------------|--0----------------|--L------------------|
|-------------------|-------------------|---------0--------L--|

   H.           E  E     W                   W                 
|---------------------|-------------------|-------------------|
|---------------------|-------------------|-------------------|
|---------------------|-------------------|--0----------------|
|--1------------L--3--|--L----------------|-------------------|

   W                W                H        H           H         
|----------------|----------------|--------------------|-----------|
|----------------|----------------|--3-----------------|-----------|
|--L-------------|--L-------------|-----------3--------|-----------|
|----------------|----------------|--------------------|--3--------|

   W                H        H           W                 
|----------------|--------------------|-------------------|
|----------------|--------------------|-------------------|
|--3-------------|--0--------2--------|--3----------------|
|----------------|--------------------|-------------------|

   H        H           H           W               W                 
|--------------------|-----------|---------------|----------------|
|--3-----------------|-----------|---------------|----------------|
|-----------3--------|--2--------|---------------|--0-------------|
|--------------------|-----------|--0------------|----------------|

   W                W                W                W                 
|----------------|----------------|----------------|----------------|
|----------------|----------------|----------------|----------------|
|----------------|----------------|--3-------------|----------------|
|--3-------------|--1-------------|----------------|--1-------------|

   H       H           H        H           H           W                 
|-------------------|--------------------|-----------|--------------|
|-------------------|--------------------|-----------|--------------|
|-------------------|--3--------2--------|--0--------|--------------|
|--3-------3--------|--------------------|-----------|--0-----------|

   W                W                W                W                 
|----------------|----------------|----------------|------------------|
|----------------|--0-------------|----------------|------------------|
|----------------|----------------|--1-------------|--L---------------|
|--L-------------|----------------|----------------|------------------|

   W                W               W                W                 
|----------------|---------------|----------------|----------------|
|----------------|---------------|--0-------------|----------------|
|--3-------------|--0------------|----------------|--1-------------|
|----------------|---------------|----------------|----------------|

   W                W                W                W                 
|----------------|----------------|----------------|-----------------|
|----------------|----------------|----------------|-----------------|
|--L-------------|--3-------------|--0-------------|--L--------------|
|----------------|----------------|----------------|-----------------|

  W             W             W              W                 
|-------------|-------------|--------------|-----------------|
|-------------|-------------|--------------|-----------------|
|-------------|-------------|--------------|-----------------|
|-------------|-------------|--------------|-----------------|

  W               W                 W                W                 
|---------------|-----------------|----------------|---------------|
|---------------|-----------------|----------------|---------------|
|---------------|-----------------|----------------|---------------|
|---------------|-----------------|----------------|---------------|

  W                  W                   W                 
|-----------------|-------------------|-------------------|
|-----------------|-------------------|-------------------|
|--0--------------|--L----------------|--L----------------|
|-----------------|-------------------|-------------------|

   H        H           W                   W                 
|--------------------|-------------------|-------------------|
|--------------------|-------------------|-------------------|
|--L-----------------|--0----------------|--L----------------|
|--------------------|-------------------|-------------------|

  W                   Q    E  H        E     W                 
|-------------------|----------------------|-------------------|
|-------------------|----------------------|-------------------|
|--L----------------|--L-------------------|--0----------------|
|-------------------|----------3--------L--|-------------------|

   W                 W                 W                 W                 
|-----------------|-----------------|-----------------|-----------------|
|-----------------|-----------------|-----------------|-----------------|
|--L--------------|--L--------------|-----------------|--0--------------|
|-----------------|-----------------|-----------------|-----------------|

   Q.     E  H           H.           E  E     W                 
|---------------------|---------------------|-------------------|
|---------------------|---------------------|-------------------|
|--L------------------|---------------------|-------------------|
|---------0--L--------|--1------------0--3--|--L----------------|

   Q.    E  Q.     E     Q.     E  Q.     E     Q.     E  Q.     E   
|---------------------|----------------------|----------------------|
|---------------------|----------------------|----------------------|
|---------------------|----------------------|----------------------|
|--1-----3--3------2--|--L------0--0------0--|--1------1--0------3--|

   Q.    E  E  E  Q       Q.     E  Q.     E     Q.     E  Q.     E   
|----------------------|----------------------|----------------------|
|----------------------|----------------------|----------------------|
|----------------------|----------------------|----------------------|
|--L-----3--3--3--3----|--1------3--3------2--|--L------0--0------0--|

   Q.    E  Q.     E     Q.     E  E  E  Q       Q.     E  Q.     E   
|---------------------|-----------------------|----------------------|
|---------------------|-----------------------|----------------------|
|---------------------|-----------------------|----------------------|
|--1-----1--0------3--|--L------3--3--3--3----|--1------3--3------2--|

   Q.    E  Q.     E     Q.     E  Q.     E     Q.     E  E  E  Q     
|---------------------|----------------------|-----------------------|
|---------------------|----------------------|-----------------------|
|---------------------|----------------------|-----------------------|
|--L-----0--0------0--|--1------1--0------3--|--L------3--3--3--3----|

   Q.    E  Q.     E     Q.     E  Q.     E     Q.     E  Q.     E   
|---------------------|----------------------|----------------------|
|---------------------|----------------------|----------------------|
|---------------------|----------------------|----------------------|
|--1-----3--3------2--|--L------0--0------0--|--1------1--0------3--|

   Q.    E  E  E  Q       Q.     E  Q.     E     Q.     E  Q.     E   
|----------------------|----------------------|----------------------|
|----------------------|----------------------|----------------------|
|----------------------|----------------------|----------------------|
|--L-----3--3--3--3----|--1------3--3------2--|--L------0--0------0--|

   Q.     E  Q.     E     Q.     E  E  E  Q       Q.     E  Q.     E   
|----------------------|-----------------------|----------------------|
|----------------------|-----------------------|----------------------|
|----------------------|-----------------------|----------------------|
|--1------1--0------3--|--L------3--3--3--3----|--1------3--3------2--|

   Q.     E  Q.     E     Q.     E  Q.     E     Q.     E  E  E  Q     
|----------------------|----------------------|-----------------------|
|----------------------|----------------------|-----------------------|
|----------------------|----------------------|-----------------------|
|--L------0--0------0--|--1------1--0------3--|--L------3--3--3--3----|

   Q.     E  Q.     E     Q.     E  Q.     E     Q.     E  Q.     E   
|----------------------|----------------------|----------------------|
|----------------------|----------------------|----------------------|
|----------------------|----------------------|----------------------|
|--1------3--3------2--|--L------0--0------0--|--1------1--0------3--|

   Q.     E  E  E  Q       Q.     E  Q.     E     Q.     E  Q.     E   
|-----------------------|----------------------|----------------------|
|-----------------------|----------------------|----------------------|
|-----------------------|----------------------|----------------------|
|--L------3--3--3--3----|--1------3--3------2--|--L------0--0------0--|

   Q.     E  Q.     E     Q.     E  E  E  Q       Q.     E  Q.     E   
|----------------------|-----------------------|----------------------|
|----------------------|-----------------------|----------------------|
|----------------------|-----------------------|----------------------|
|--1------1--0------3--|--L------3--3--3--3----|--1------3--3------2--|

   Q.     E  Q.     E     Q.     E  Q.     E     Q.     E  E  E  Q     
|----------------------|----------------------|-----------------------|
|----------------------|----------------------|-----------------------|
|----------------------|----------------------|-----------------------|
|--L------0--0------0--|--1------1--0------3--|--L------3--3--3--3----|

   Q.     E  Q.     E     Q.     E  Q.     E     Q.     E  Q.     E   
|----------------------|----------------------|----------------------|
|----------------------|----------------------|----------------------|
|----------------------|----------------------|----------------------|
|--1------3--3------2--|--L------0--0------0--|--1------1--0------3--|

   Q      Q. E  E  E                                  
|-----------------------||
|-----------------------||
|-----------------------||
|--L------3--3--3--3----||


Duration Legend
---------------
W - whole
H - half
Q - quarter
E - 8th
S - 16th
T - 32nd
X - 64th
. - note dotted
|-n-|  - n-tuplets





Comments


Popular Dire Straits tabs & chords
Once Upon A Time In The West Bass Tabs
Money For Nothing Chords
Private Investigations Chords
Whats The Matter Baby Chords
Brothers In Arms 1 Tabs
Calling Elvis Tabs
Single Handed Sailor Tabs
Six Blade Knife Tabs
Setting Me Up Ukulele
Tunnel Of Love Ukulele


Song lyrics



↑ Back to top | Tablatures and chords are parodies/interpretations of the original songs. You may use it for private study, scholarship, research or language learning purposes only
© 2014 AZChords.com Contact us | Privacy policy | DMCA | Add/correct tabs | Request tabs | Top 50 tabs