» » »

Planet Of New Orleans Tabs (ver.1)

Artists:  A B C D E F G H I J K L M N O P Q R S T U V W X Y Z # 

Planet Of New Orleans Tabs (ver.1)

Dire Straits
Rating:
0/5 (0 votes)

Tabs too difficult? Try these video lessons and learn fast.
                

The bars are very rough attemps to indicate rythm, but I'm pretty sure
they don't match. Anyway, tabs are pretty useless without the original
music, so who cares.

A ">" or "12--------|-14>9-|-9>7>5-|-7-4>5-7-4>5----|
 --12--14-12-14-|-12-14--------------12>14--|------|-------|----------------|
 ---------------|---------------------------|------|-------|----------------|
 ---------------|---------------------------|------|-------|----------------|


 ------------|---------------|-------|------------------|-------------------
 ------------|---------------|-------|------------15>10-|-10-15-12----------
 -------9-7--|-----9-12>11-9-|-12>9--|-----12-14--------|-------------------
 --7-10------|-12------------|-------|-12---------------|-------------------
 ------------|---------------|-------|------------------|-------------------
 ------------|---------------|-------|------------------|-------------------


 -----------|-----------|--------12--
 -12-13-10--|-12-13-15--|-13-15------
 -----------|-----------|------------
 -----------|-----------|------------
 -----------|-----------|------------
 -----------|-----------|------------

"Middle" solo. Begins at 4' 02".

 ---------------|--------------------|--------------------------------------
 10-12-13-12-10-|-12-12-10-----------|-13-------7---7---7---8------------8--
 ---------------|-----------12<11<9--|----12<9----9---9---9---9-7-9-7-9-----
 ---------------|--------------------|--------------------------------------
 ---------------|--------------------|--------------------------------------
 ---------------|--------------------|--------------------------------------
								    ^^^^^
							The 3 last notes are
							played very softly


 ----------------------|-------------|------------------|
 -------12-13-13-13<12-|-10-12-13<12-|-10-10-10---------|
 -12-14----------------|-------------|----------12-11-9-|
 ----------------------|-------------|------------------|
 ----------------------|-------------|------------------|
 ----------------------|-------------|------------------|

-------------------------|
------------10-10<12-10--|
-11-9-11-9---------------|
-------------------------|
-------------------------|
-------------------------|
            
Tabs too difficult? Try these video lessons and learn fast.




comments powered by Disqus
↑ Back to top | Tablatures and chords are parodies/interpretations of the original songs. You may use it for private study, scholarship, research or language learning purposes only