>
 >
Ride Across The River

Ride Across The River Bass Tabs

Dire Straits - Ride Across The River chords, tabs, tablatures, lyrics

Guitar lessons | Add/correct | Request | Top 50 tabs Artists:  A B C D E F G H I J K L M N O P Q R S T U V W X Y Z 0-9

Ride Across The River Bass Tabs – Dire Straits

CD, Sheet music, Poster

Do you like Ride Across The River? Share with your friends now
Bass TabsChordsTabsUkulele
                                          Artist - Dire Straits
                                         ***********************
                                      Song - Ride Across The River
                                     ******************************
                                        Album - Brothers In Arms
                                       **************************
                                         **********************


INTRO
******


00:32
[--------|--------|--------|--------|--------]
[----2-2-|--------|----2-2-|--------|--------]
[-2------|-2------|-2------|-0--2---|-2------]
[--------|----3-0-|--------|------0-|----3-0-]


----------------------------------
00:44
VERSE 1
********

[--------|--------|--------|--------|--------|-------]
[----2-2-|--------|----2-2-|--------|--------|-------]
[-2------|-2------|-2------|-0--2---|-2------|-------]
[--------|----3-0-|--------|------0-|----3-0-|-3-3-0-]


                                 CHORUS
00:58                            01:10
[-------|-------|-------|-------|-------|------------|-----|-------|-------]
[-------|---0---|-------|---0---|-------|--s-------2-|-----|---0---|-------]
[-3---3-|-2---2-|-3---3-|-2---2-|-3---3-|-3\5--5-3---|-5---|-2---2-|-3---3-]
[---3---|-------|---3---|-------|---3---|------------|---5-|-------|---3---]


01:23
[--------|--------]
[----2-2-|--------]
[-2------|-2------]
[--------|----3-0-]


----------------------------------
01:29
VERSE 2
********

[--------|--------|--------|--------|--------|-------]
[----2-2-|--------|----2-2-|--------|--------|-------]
[-2------|-2------|-2------|-0--2---|-2------|-----2-]
[--------|----3-0-|--------|------0-|----3-0-|-0-3---]


                                 CHORUS
01:43                            01:55
[-------|-------|-------|-------|-------|----------|-----|-------|-------]
[-------|---0---|-------|---0---|-------|--s-------|-----|---0---|-------]
[-3---3-|-2---2-|-3---3-|-2---2-|-3---3-|-3\5--0-3-|-5---|-2---2-|-3---3-]
[---3---|-------|---3---|-------|---3---|----------|---5-|-------|---3---]


----------------------------------
02:08
SOLO
*****

01:23
[--------|--------]
[----2-2-|--------]
[-2------|-2------]
[--------|----3-0-]


[--------|--------|--------|--------|--------|-------]
[----2-2-|--------|----2-2-|--------|--------|-------]
[-2------|-2------|-2------|-0--2---|-2------|-------]
[--------|----3-0-|--------|------0-|----3-0-|-0-3-3-]

                                 
02:27                            02:39
[-------|-------|-------|-------|-------|------------|-----|-------|-------]
[-------|---0---|-------|---0---|-------|--s---------|-----|---0---|-------]
[-3---3-|-2---2-|-3---3-|-2---2-|-3---3-|-3\5--5-3-5-|-5---|-2---2-|-3---3-]
[---3---|-------|---3---|-------|---3---|------------|---5-|-------|---3---]


02:51
[--------|---|--------|--------]
[----2-2-|---|--------|--------]
[-2------|---|-2------|-0--2---]
[--------|-0-|----3-0-|------0-]



BREAK
------


----------------------------------
03:24
VERSE 3
********

[--------|--------|--------|--------|--------|-------]
[----2-2-|--------|----2-2-|--------|--------|-------]
[-2------|-2------|-2------|-0--2---|-2------|-----2-]
[--------|----3-0-|--------|------0-|----3-0-|-0-3---]


                                     CHORUS
03:37                                03:48
[-------|-------|-------|---|-------|-------|----------|-----|-------|------]
[-------|---0---|-------|0-0|---0---|-------|--s-------|-----|-------|------]
[-3---3-|-2---2-|-3---3-|---|-2---2-|-3---3-|-3\5--0-3-|-5---|-3---3-|-5----]
[---3---|-------|---3---|---|-------|---3---|----------|---5-|---3---|---5-3]


                       04:04 
[--------|------------|-------|------------|-----|-------|-------]
[----2-2-|----2-2-----|-------|--s---------|-----|---0---|-------]
[-2------|-2------2-2-|-3---3-|-3\5--5---3-|-5---|-2---2-|-3---3-]
[--------|------------|---3---|--------5---|---5-|-------|---3---]


04:16
[--------|---|--------|--------]
[----2-2-|---|--------|--------]
[-2------|---|-2------|-0--2---]
[--------|-0-|----3-0-|------0-]



Cool Dire Straits Tune. Enjoy............





Comments


Popular Dire Straits tabs & chords
Single Handed Sailor Bass Tabs
You And Your Friend Bass Tabs
Angel Of Mercy Chords
Telegraph Road Chords
Brothers In Arms 5 Tabs
Romeo And Juliet 3 Tabs
Single Handed Sailor Tabs
Sultans Of Swing Live Tabs
Brothers In Arms Ukulele
Setting Me Up Ukulele


Song lyrics



↑ Back to top | Tablatures and chords are parodies/interpretations of the original songs. You may use it for private study, scholarship, research or language learning purposes only
© 2014 AZChords.com Contact us | Privacy policy | DMCA | Add/correct tabs | Request tabs | Top 50 tabs