>
 >
Walk Of Life

Walk Of Life Bass Tabs

Dire Straits - Walk Of Life chords, tabs, tablatures, lyrics

Guitar lessons | Add/correct | Request | Top 50 tabs Artists:  A B C D E F G H I J K L M N O P Q R S T U V W X Y Z 0-9

Walk Of Life Bass Tabs – Dire Straits

CD, Sheet music, Poster

Do you like Walk Of Life? Share with your friends now
Bass TabsBass Tabs v2Bass Tabs v3ChordsChords v2Chords v3TabsTabs v2Tabs v3Tabs v4Ukulele
[INTRO]
 (Background Organ only)                  (Background Organ and Lead Organ)
  E    E    A    A    B    B    A    B     E    E    A    A    B    B    A    B
G:----|----|----|----|----|----|----|----||----|----|2---|----|4---|----|2---|4---|
D:----|----|----|----|----|----|----|----||2---|----|----|----|----|----|----|----|
A:----|----|----|----|----|----|----|----||----|----|----|----|----|----|----|----|
E:----|----|----|----|----|----|----|----||----|----|----|----|----|----|----|----|
                                          (Drums)
  E    E    A    A    B    B    A    B     E    E    A    A    B    B    A    B
G:----|----|----|----|----|----|----|----||----|----|----|----|----|----|----|----|
D:----|----|----|----|----|----|----|----||----|----|--2-|--2-|--4-|----|--2-|----|
A:----|----|0---|--4-|2---|----|0---|2---||--2-|----|0---|0---|2---|2---|0---|20--|
E:0---|--4-|----|----|----|--4-|----|----||0---|0-4-|----|----|----|--4-|----|--42|
  E    E    A    A    B    B    A    B   
G:----|----|----|----|----|----|----|----|
D:----|----|--2-|--2-|--4-|----|--2-|----|
A:--2-|----|0---|0---|2---|2---|0---|20--|
E:0---|0-4-|----|----|----|--4-|----|--42|

[VERSE]
  E                       E                E               E
  Here come Johnny singin oldies, goldies  Bebabaluba baby what I say
  E                        E               E                            E
  Here come Johnny singin "I gotta woman   Down in the tunnel tryin' to make it pay"
  A                 A                      E               E
  He got the action he got the motion        Oh, yeah, the boy can play
                                                (Yeah, the boy can play)
  A                 A                      E                          E
    The dedication, devotion          He's turnin' all the night time into the day
                                          (Turnin' all the night time into the day-)
  E    E    E    E    E    E    E    E     A    A    E    E    A    A    E    E
G:----|----|----|----|----|----|----|----||----|----|----|----|----|----|----|----|
D:----|----|----|----|----|----|----|----||--2-|--2-|----|----|--2-|--2-|----|----|
A:--2-|--2-|--2-|--2-|--2-|--2-|--2-|----||0---|0---|--2-|----|0---|0---|----|----|
E:0---|0---|0---|0---|0---|0---|0---|0-4-||----|----|0---|0-4-|----|----|0~~~~~~~~|

[CHORUS + BRIDGE]
            E                           B                 E                     A
  He do the song about the sweet lovin' woman   He do the song about the knife
(ayyyyyyyyy-ayyyyyyyyyyyyyyyyyyyyyyyyyy-ayyyyyyyyyyyyyyyy-ayyyyyyyyyyyyyyyyyyyy-ay)
                 E      B                   A       B                      
  Then he do The Walk     He do The Walk of Life    Yeah, he do The Walk of 
         (Do The Walk)             (Walk of Liiiiii-ife)

  E    E    A    A    B    B    A    B
  Life

  E    B    E    A    E    B    A    B     E    E    A    A    B    B    A    B
G:----|----|----|----|----|----|----|----||----|----|----|----|----|----|----|----|
D:----|----|----|----|----|----|----|----||----|----|--2-|--2-|--4-|----|--2-|----|
A:---0|2---|----|0-0-|---0|2---|0---|20--||--2-|----|0---|0---|2---|2---|0---|20--|
E:0-4-|--2-|0-24|----|0-4-|--2-|--2-|--42||0---|0-4-|----|----|----|--4-|----|--42|

[VERSE]
  E                      E                        E               E
  Here come Johnny gonna tell you a story         Hand me down my walkin' shoes
  E                         E                     E                E
  Here come Johnny with the power and the glory     Back beat  The talkin' blues
  A                 A                      E               E
  He got the action he got the motion        Oh, yeah, the boy can play
                                                (Yeah, the boy can play)
  A                 A                      E                          E
    The dedication, devotion          He's turnin' all the night time into the day
                                          (Turnin' all the night time into the day-)

  E    E    E    E    E    E    E    E     A    A    E    E    A    A    E    E
G:----|----|----|----|----|----|----|----||----|----|----|----|----|----|----|----|
D:----|----|----|----|----|----|----|----||--2-|--2-|----|----|--2-|--2-|----|----|
A:--2-|--2-|--2-|--2-|--2-|--2-|--2-|----||0---|0---|--2-|----|0---|0---|----|----|
E:0---|0---|0---|0---|0---|0---|0---|0-4-||----|----|0---|0-4-|----|----|0~~~~~~~~|
[CHORUS]
      E                           B                 E                     A
  The song about the sweet lovin' woman   He do the song about the knife
(ayyy-ayyyyyyyyyyyyyyyyyyyyyyyyyy-ayyyyyyyyyyyyyyyy-ayyyyyyyyyyyyyyyyyyyy-ay)
                 E      B                   A       B                        E
  Then he do The Walk        Do The Walk of Life    Yeah, he do The Walk of  Life
         (Do The Walk)             (Walk of Liiiiii-ife)


  E    B    E    A    E    B    A    B    
G:----|----|----|----|----|----|----|----|
D:----|----|----|----|----|----|----|----|
A:---0|2---|----|0-0-|---0|2---|0---|20--|
E:0-4-|--2-|0-24|----|0-4-|--2-|--2-|--42|

[INSTRUMENTAL]
  E    E    A    A    B    B    A    B    E    E    A    A    B    B    A    B   
G:----|----|----|----|----|----|----|----|----|----|----|----|----|----|----|----|
D:----|----|--2-|--2-|--4-|----|--2-|----|----|----|--2-|--2-|--4-|----|--2-|----|
A:--2-|----|0---|0---|2---|2---|0---|20--|--2-|----|0---|0---|2---|2---|0---|20--|
E:0---|0-4-|----|----|----|--4-|----|--42|0---|0-4-|----|----|----|--4-|----|--42|

[VERSE]
  E                       E                E               E
  Here come Johnny singin oldies, goldies  Bebabaluba baby what I say
  E                        E               E                            E
  Here come Johnny singin "I gotta woman   Down in the tunnel tryin' to make it pay"
  A                 A                      E               E
  He got the action he got the motion        Oh, yeah, the boy can play
                                                (Yeah, the boy can play)
  A                 A                      E                          E
    The dedication, devotion          He's turnin' all the night time into the day
                                          (Turnin' all the night time into the day-)

  E    E    E    E    E    E    E    E     A    A    E    E    A    A    E    E
G:----|----|----|----|----|----|----|----||----|----|----|----|----|----|----|----|
D:----|----|----|----|----|----|----|----||--2-|--2-|----|----|--2-|--2-|----|----|
A:--2-|--2-|--2-|--2-|--2-|--2-|--2-|----||0---|0---|--2-|----|0---|0---|----|----|
E:0---|0---|0---|0---|0---|0---|0---|0-4-||----|----|0---|0-4-|----|----|0~~~~~~~~|

[CHORUS + BRIDGE]
            E                           B     
  And after all the violence and double-talk  
(-ayyyyyyyy-ayyyyyyyyyyyyyyyyyyyyyyyyyy-ayyyyyyyyy--)
                 E                               A
  There's just a song in all the trouble and the strife 
(-ayyyyyyyyyyyyy-ayyyyyyyyyyyyyyyyyyyyyyyyyyyyyy-ay)
            E      B                        A      B                           E
  He do The Walk   Yeah,  He do The Walk of Life      Hmmm, he do The Walk of  Life
    (Do The Walk)                  (Walk of Liiiii-ife)


  E    B    E    A    E    B    A    B    
G:----|----|----|----|----|----|----|----|
D:----|----|----|----|----|----|----|----|
A:---0|2---|----|0-0-|---0|2---|0---|20--|
E:0-4-|--2-|0-24|----|0-4-|--2-|--2-|--42|


[CODA] (Repeat & Fade)
  E    E    A    A    B    B    A    B     E    E    A    A    B    B    A    B   
G:----|----|----|----|----|----|----|----||----|----|----|----|----|----|----|----|
D:----|----|--2-|--2-|--4-|----|--2-|----||----|----|--2-|--2-|--4-|----|--2-|----|
A:--2-|----|0---|0---|2---|2---|0---|20--||--2-|----|0---|0---|2---|2---|0---|20--|
E:0---|0-4-|----|----|----|--4-|----|--42||0---|0-4-|----|----|----|--4-|----|--42|

March 31, 2011





Comments


Popular Dire Straits tabs & chords
Sultans Of Swing 5 Bass Tabs
Brothers In Arms 6 Chords
Portobello Belle 1 Chords
Local Hero Live 1 Tabs
Love Over Gold Live Tabs
On Every Street 4 Tabs
Twisting By The Pool Tabs
Your Latest Trick Live Tabs
Single Handed Sailor Ukulele
So Far Away 2 Ukulele


Song lyrics



↑ Back to top | Tablatures and chords are parodies/interpretations of the original songs. You may use it for private study, scholarship, research or language learning purposes only
© 2014 AZChords.com Contact us | Privacy policy | DMCA | Add/correct tabs | Request tabs | Top 50 tabs