>
 >
You And Your Friend 2

You And Your Friend 2 Bass Tabs

Dire Straits - You And Your Friend 2 chords, tabs, tablatures, lyrics

Guitar lessons | Add/correct | Request | Top 50 tabs Artists:  A B C D E F G H I J K L M N O P Q R S T U V W X Y Z 0-9

You And Your Friend 2 Bass Tabs – Dire Straits

CD, Sheet music, Poster

Do you like You And Your Friend 2? Share with your friends now
Bass TabsBass Tabs v2ChordsUkulele

Tuning: E A D G


Intro           
G------------|-----|--------------------|-
D------------|-----|--------------------|-
A------------|--3~-|--------------------|-
E-1-1-3~-----|-----|---1-1-3~----1-1-3~-|-


Guitar palying
G------------------------0--0------0-------------------------------|-
D------------------3-----------------------------------------------|-
A-5-5-----5--5-1—1---1-2------3--3--------5-------5------5---------|- X2
E----3--3----------------------------2-3---4br/3----2-3----5-6-5-3-|-



Verse 1  01:04
G------------------------0--0------0---------------------------------|-
D------------------3----------------------------------------5-5------|-
A-5-5-----5--5-1—1---1-2------3--3--------5-------5------5------5----|- 
E----3--3----------------------------2-3---4br/3----2-3----------5-3-|-
Will you and your friend come around… 
Are you and your friend gonna get on down…

G------------------------0--0------0-------------------------|-
D------------------3-----------------------------------------|-
A-5-5-----5--5-1—1---1-2------3--3--------5-------5------5~~-|- 
E----3--3----------------------------2-3---4br/3----2-3------|-
Will you and your friend come around…
Or will you and your friend gonna let me down…



Bridge 1  01:47
G------------------------------------------------|-
D------------------------------------------------|-
A-------3---------------3---------------3--------|-
E-4-3-1---1-3-3---4-3-1---1-3-3---4-3-1---1-3-3--|-
If you talk to one another… I am hungry man…  
Let me know one way or the other…

G---------------------------|-
D---------------------------|-
A-----------3~--------------|-
E--4-3-1~------------1-1-3~-|-
So I can make my plans…




Verse 2  02:13
G------------------------0--0------0---------------------------------|-
D------------------3----------------------------------------5-5------|-
A-5-5-----5--5-1—1---1-2------3--3--------5-------5------5------5----|- 
E----3--3----------------------------2-3---4br/3----2-3----------5-3-|-
Will you and your friend come around…
Or are you and your friend gonna get on down…


G------------------------0--0------0------------------------|-
D------------------3----------------------------------------|-
A-5-5-----5--5-1—1---1-2------3--3--------5-------5------5~-|- 
E----3--3----------------------------2-3---4br/3----2-3-----|-
Will you and your friend come around…
Or are you and your friend gonna get on down…


Bridge 2  02:55
G------------------------------------------------|
D------------------------------------------------|
A-------3~--------------3~--------------3~-------|
E-4-3-1---1-3-3---4-3-1---1-3-3---4-3-1---1-3-3--|
I relive the situation…
Still see it in my mind…

G-------------------0~-----------------------------|
D--------------------------------------------------|
A-----------3~--3-----3-5--5-3-1-3-3-3~-3~---------|
E--4-3-1~-----------------------------------1-1-3~-|
You got my imagination…
Working over time…



Solo 03:32
X7 till fade out . . .
G------------------------0--0------0---------------------------------|-
D------------------3----------------------------------------5-5------|-
A-5-5-----5--5-1—1---1-2------3--3--------5-------5------5------5----|- 
E----3--3----------------------------2-3---4br/3----2-3----------5-3-|-



End : 05:55







======================================================================
==                     GENERAL TABLATURE EXPLANATION                ==
======================================================================

----------                ----------                ----t---
----5h8--- Hammer on      ----g8---- Ghost          ----6--- Tap
----------                ---------- Note           --------
----5p8--- Pull off       ----------                --------

----------                ----------                -----p—
-----5/8-- Slide Up       -----x---- Dead           -----7-- Pop
----------                ---------- Note           --s---
----5\8--- Slide Down     ----------                --5----- Slap

----------                ||------|| Repeat         -------- 
----5~~~-- Vibrato        ||*----*||                ---5b--- Bend 
----------                ||*----*||                -------- up or 
----------                ||------||                -------- down

----------                ----------                --------
-4:------- Time           ----------                --------
-4:------- Signature      ----------                --4br--- Bend /
----------                ----------                -------- release





Comments


Popular Dire Straits tabs & chords
Solid Rock Bass Tabs
Brothers In Arms 4 Chords
Money For Nothing Chords
Once Upon A Time In The West 1 Chords
Portobello Belle 1 Chords
Money For Nothing Intro Tabs
On Every Street 4 Tabs
Romeo And Juliet Tabs
Communique Ukulele
Planet Of New Orleans Ukulele


Song lyrics



↑ Back to top | Tablatures and chords are parodies/interpretations of the original songs. You may use it for private study, scholarship, research or language learning purposes only
© 2014 AZChords.com Contact us | Privacy policy | DMCA | Add/correct tabs | Request tabs | Top 50 tabs