» » »

Headphones Bass tabs (ver.1)

Artists:  A B C D E F G H I J K L M N O P Q R S T U V W X Y Z # 

Headphones Bass tabs (ver.1)

Disco Ensemble
Rating:
0/5 (0 votes)
Tabs too difficult? Try these video lessons and learn fast.
                The song is played in drop D

Intro

G|-------------||-------------|
D|-1-1--1-1--1-||-4-4--4-4--4-|
A|-------------||-------------|
E|-------------||-------------|

G|-------------||-------------|
D|-8-8--8-8--8-||-6-6--6-6--6-|
A|-------------||-------------|
E|-------------||-------------|

X2

Verse

G|-----------------|   |-----------------|
D|-----------------|   |-----------------|
A|-1-1-1-1-1-1-1-1-|   |-4-4-4-4-4-4-4-4-|
E|-----------------|x2 |-----------------|x2

G|-----------------|   |-----------------|
D|-----------------|   |-----------------|
A|-6-6-6-6-6-6-6-6-|   |-9-9-9-9-9-9-9-9-|
E|-----------------|x2 |-----------------|x2

x2

Chorus

G|-----------------||-----------------|
D|-1-1-1-1-1-1-1-1-||-4-4-4-4-4-4-4-4-|
A|-----------------||-----------------|
E|-----------------||-----------------|

G|-----------------||-----------------|
D|-----------------||-----------------|
A|-----------------||-----------------|
E|-8-8-8-8-8-8-8-8-||-6-6-6-6-6-6-6-6-|

x4

Play Verse Again

Play Chorus Again

Interlude

G|-----------------||-----------------|
D|-----------------||-----------------|
A|-----------------||-----------------|
E|-4-4-4-4-4-4-4-4-||-6-6-6-6-6-6-6-6-|

G|-----------------||-----------------|
D|-----------------||-----------------|
A|-----------------||-4-4-4-4-4-4-4-4-|
E|-8-8-8-8-8-8-8-8-||-----------------|

x2

Break

G|-3-3-3-3-3-3-3-3-|   |-6-6-6-6-6-6-6-6-|
D|-----------------|   |-----------------|
A|-----------------|   |-----------------|
E|-----------------|x2 |-----------------|x2

G|-----------------|   |-----------------|
D|-1-1-1-1-1-1-1-1-|   |-4-4-4-4-4-4-4-4-|
A|-----------------|   |-----------------|
E|-----------------|x2 |-----------------|x2

x2

Play Chorus Again

Outro Chorus

G|-----------------||-----------------|
D|-1-1-1-1-1-1-1-1-||-4-4-4-4-4-4-4-4-|
A|-----------------||-----------------|
E|-----------------||-----------------|

G|-----------------||-----------------|
D|-----------------||-----------------|
A|-----------------||-----------------|
E|-8-8-8-8-8-8-8-8-||-6-6-6-6-6-6-6-6-|

G|-----------------||-----------------|
D|-1-1-1-1-1-1-1-1-||-4-4-4-4-4-4-4-4-|
A|-----------------||-----------------|
E|-----------------||-----------------|

G|-----------------||-----------------|
D|-----------------||-----------------|
A|-----------------||-6-6-6-6-6-6-6-6-|
E|-8-8-8-8-8-8-8-8-||-----------------|

Outro

G|-----------------||-----------------|
D|-1-------1---1---||-4-------4---4---|
A|-----------------||-----------------|
E|-----------------||-----------------|

G|-----------------||-----------------|
D|-----------------||-----------------|
A|-----------------||-----------------|
E|-8-------8---8---||-6-------6---6---|

x2

Play Intro Again
            
Tabs too difficult? Try these video lessons and learn fast.


comments powered by Disqus
↑ Back to top | Tablatures and chords are parodies/interpretations of the original songs. You may use it for private study, scholarship, research or language learning purposes only