>
 >
Mission 2

Mission 2 Bass Tabs

Dispatch - Mission 2 chords, tabs, tablatures, lyrics

Guitar lessons | Add/correct | Request | Top 50 tabs Artists:  A B C D E F G H I J K L M N O P Q R S T U V W X Y Z 0-9

Mission 2 Bass Tabs – Dispatch

CD, Sheet music, Poster

Do you like Mission 2? Share with your friends now
Bass TabsBass Tabs v2ChordsTabsTabs v2Ukulele


Intro:
G|--------------------------------------------|
D|--------------------------------------------|
A|-44-4-66-44-4-4-4-4-6-----------------------|
E|----------------------44-4-66-44-4-4-4-4-6--|


Verse 1:
G|---------------------------------------------|
D|---------------6---8-------------------------|
A|-44-4-66-4-6-8---8---6-----------------------|
E|-----------------------44-4-66-44-4-4-4-4-6--|

G|--------------------------------------------|
D|---------------7/8-6------------------------|
A|-44-4-66-4-6-8-------8-6--------------------|
E|-------------------------44-4-66-4-4-4-3-3--|

G|--------------------------------------------|
D|---------------7/8-6------------------------|
A|-44-4-66-4-6-8-------8-6--------------------|
E|-------------------------44-4-66-4-6-8-6-4--|

G|------------------------------------------|
D|------------------------------------------|
A|-44-4-66-44-4-4-4-4-6---------------------|
E|----------------------44-4-66-44-4-4-4-4--|


Chorus 1:
G|---------------------|
D|---------------------|x4
A|----------9-8-6-8-9--|
E|-66666666------------|

G|--------------------------------------------------|
D|--------------------8-----------------------------|
A|--------6----6-6-66---6-7--------4-----------6----|
E|-4-4-44---54--------------2-2-22---23-4-4-44---4--|


Verse 2:
G|-------------------------------------------|
D|-------------------------------------------|
A|-44-4-66-44-4-4-4-4-6----------------------|
E|----------------------44-4-66-4-6-8-9-8-6--|

G|--------------------------------------------|
D|--------------------------------------------|
A|-44-4-66-44-4-4-4-4-6-----------------------|
E|----------------------44-4-66-44-4-4-4-4-6--|

G|------------------------------------------|
D|---------------6--------------------------|
A|-44-4-66-4-6-8---8-6-4--------------------|
E|-----------------------44-4-66-4-4-4-3-3--|

G|-------------------------------------------|
D|-------------------------------------------|
A|-44-4-66-44-4-4-4-4-6----------------------|
E|----------------------44-4-66-4-6-8-9-8-6--|

G|----------------------------------------|
D|----------------------------------------|
A|-44-4-66-44-4-4-4-4-6-------------------|
E|----------------------44-4-66-44444444--|


Chorus 2:
G|---------------------|
D|---------------------|x2
A|----------9-8-6-8-9--|
E|-66666666------------|

G|----------------------------------------|
D|----------------------------------------|
A|----------9------------------9-8-6-8-9--|
E|-66666666-----------66666666------------|

G|------------------------------------------------------|
D|---------------------8--------------------------------|
A|--------6-----6-6-66----6-7---------4------------6----|
E|-4-4-44---54-----------------2-2-22---23--4-4-44---4--|

G|-----------------------------------------|
D|-----------------------------------------|x2
A|-----------------------------------------|
E|-2-2-2-23--6-6-6-68--4-4-4-45--6-6-6-68--|


Bridge:
G|-----------------|
D|-----------------|
A|-----------------|
E|-11-22-33-44-55--|

G|---------------------|
D|---------------------|x2
A|----------9-8-6-8-9--|
E|-66666666------------|

G|----------------------------------------|
D|----------------------------------------|
A|----------9------------------9-8-6-8-9--|
E|-66666666-----------66666666------------|

G|--------------------------------------------------------------------------------|
D|--------------------8-----------------------------------------------------------|
A|--------6----6-6-66---6-7--------4-----------6-----------6--------6--------6----|
E|-4-4-44---54--------------2-2-22---23-4-4-44---4--4-4-44---4-4-44---4-4-44---4--|

^sorry if this part doesnt fit correctly^


Verse 3:
G|--------------------------------------------------|
D|--------------------------------------------------|
A|-44-4-66-4-6-8-6-8-6-8-6-8-6----------------------|
E|-----------------------------44-4-66-4-6-8-9-8-6--|

G|-----------------------------------------|
D|---------------6-------------------------|
A|-44-4-66-4-6-8---8-6-4-------------------|
E|-----------------------44-4-66-44444444--|

Chorus 3 (ending):
G|--------------------------------|
D|--------------------------------|x2
A|----------9-8-6-8-9----------9--|
E|-66666666-----------66666666----|


awesome and fun song to play
-dan





Comments


Popular Dispatch tabs & chords
Out Loud 1 Chords
Out Loud 2 Chords
Prince Of Spades Chords
Two Coins Chords
Bang Bang 3 Tabs
Blue Yellow Tabs
Bullet Holes Tabs
Burning The River Tabs
Fats Tabs
Time Served Tabs


Song lyrics



↑ Back to top | Tablatures and chords are parodies/interpretations of the original songs. You may use it for private study, scholarship, research or language learning purposes only
© 2014 AZChords.com Contact us | Privacy policy | DMCA | Add/correct tabs | Request tabs | Top 50 tabs