» » »

Open Up Tabs (ver.1)

Artists:  A B C D E F G H I J K L M N O P Q R S T U V W X Y Z # 

Open Up Tabs (ver.1)

Dispatch
Rating:
0/5 (0 votes)
Tabs too difficult? Try these video lessons and learn fast.
                Dispatch

Chord Forms

Bbm      F        C#         G#     Bbm (6th Form)     F#

-1-------1--------4----------4------------6-------------2--------
-2-------1--------6----------4------------6-------------2--------
-3-------2--------6----------5------------6-------------3--------
-3-------3--------6----------6------------8-------------4--------
-1-------3--------4----------6------------8-------------4--------
-1-------1--------4----------4------------6-------------2--------



X means mute strings as in Reggea style ska music

Verse
x x Bbm Bbm x x F F x x Bbm Bbm F   
x x Bbm Bbm x x F F x x Bbm Bbm    
x x Bbm Bbm x x F F x x Bbm Bbm F   
x x Bbm Bbm x x F F x x Bbm Bbm    

Prechorus
                       (6th Form)
x x C#xC# x x G#xG# x x BbmxBbm x x BbmxBbm
x x C#xC# x x G#xG# x x BbmxBbm F 
x x C#xC# x x G#xG# x x BbmxBbm x x BbmxBbm
x x C#xC# x x G#xG# x x BbmxBbm F#

Chorus

x x C#xC# x x G#xG# x x BbmxBbm xxF# xxF


Verse1
They Were Looking For me When I Came To
They Were Looking For Me When I Came Back
Said hey you youre lookin mighty suspicious
(x2) I said relax man get of my back

(Prechorus)
Now I I I aint opposed to seeking justice
but youre going about it all wrong
the man your looking for does not exist 
hes just a figment of the higher mans tounge

(Chorus)
and they say
Open up were commin inside
you cant run so you might as well hide
we got the place covered from head to toe head to toe
Open up were comming inside
whats it feel like to know your gonna die
oh on the other side of the road
on the other side of the road

Verse2
So they took my down to the gallows
and this boy he said to me
why do ya smile when the ropes around your neck
(x2) I said Ill tell ya boy when I get back 

(Chorus)

Solo
--------------------------------------------------------x-x-2-x-x-1-------
--------------------------------------------------------x-x-2-x-x-1-------
--------------------------------------------------------x-x-3-x-x-2-------
---6-3-----6-3----------------------6-3-----6-3---------x-x-4-x-x-3-------
-4-----4-----------4-6-----4-1----4-----4-----------4-6-x-x-4-x-x-3-------
---------4-----4-6-----2-2-----2----------4-----4-6-----x-x-2-x-x-1-------

------------------------------------------------
------------------------------------------------
------------------------------------------------
---6-3-----6-3----------------------6-3-----6-3-
-4-----4-----------4-6-----4-1----4-----4-------
---------4-----4-6-----2-2-----2----------4-----

Then Play these chords all in 5th form
xxx C#xC# xxx D#mxD#m xxx FmxFm xx F# xx G#

Chorus Chords

(Bridge)
F
Hands above your head
F
que le via bien
F                    F#
step out of line and well fill ya with lead

Play the Chorus Chords for this part

how are we to know that you are not a liar hey
dont you see we have a job to do 
and our job is the law job is the law
you fit the description of a criminal crosser hey
we believe that he is you and that is your flaw
(x4) that is your flaw

Chorus
            
Tabs too difficult? Try these video lessons and learn fast.


comments powered by Disqus
↑ Back to top | Tablatures and chords are parodies/interpretations of the original songs. You may use it for private study, scholarship, research or language learning purposes only