» » »

How Long Tabs (ver.4)

Artists:  A B C D E F G H I J K L M N O P Q R S T U V W X Y Z # 

How Long Tabs (ver.4)

Eagles
Rating:
0/5 (0 votes)

Tabs too difficult? Try these video lessons and learn fast.
                -------------------------------------------------------------------------------
                             SONG NAME - Band Name
-------------------------------------------------------------------------------

Tuning: Standard

e|-------------------------8---------------------------------------------|
B|--------------------------------------------10-10-8-8-6-6-4-4-3--------|
G|--------------5h7p5-7/9----pb9ld7p5h7p5--5--10-10-8-8-7-7-5-5-3-—1h2---|
D|--7p5---5h7-----------------------------7----------------------3----4--|
A|------7----------------------------------------------------------------|
E|-----------------------------------------------------------------------|

e|-----------------------------/12-8-------------------------------------|
B|-----------------------8-10-8------15------15----15----15---15---------|
G|---------------5—7-7h9-------------14b16-pb16--pb16--pb16-pb16ld14-12--|
D|-----------5-7---------------------------------------------------------|
A|-3-5p3-5s7-------------------------------------------------------------|
E|-----------------------------------------------------------------------|

e|-----------------------|
B|----8------------------|
G|--pb12ld10-7-5p4-4-5---|
D|----------------5------|
A|-----------------------|
E|-----------------------|

| /  slide up
| \  slide down
| h  hammer-on
| p  pull-off
| pb pre-bend
| ld let down 
| ~  vibrato
| +  harmonic
| x  Mute note
===============================================================================
            
Tabs too difficult? Try these video lessons and learn fast.


comments powered by Disqus
↑ Back to top | Tablatures and chords are parodies/interpretations of the original songs. You may use it for private study, scholarship, research or language learning purposes only