>
 >
Is It True

Is It True Guitar Tabs

Eagles - Is It True chords, tabs, tablatures, lyrics

Guitar lessons | Add/correct | Request | Top 50 tabs Artists:  A B C D E F G H I J K L M N O P Q R S T U V W X Y Z 0-9

Is It True Guitar Tabs – Eagles

CD, Sheet music, Poster

Do you like Is It True? Share with your friends now
ChordsTabsUkulele
Is It True?
Written and sung by Randy Meisner

Tuning: Standard

Intro: D  Dmaj7  Bm   A (x2)

D            Dmaj7            Bm              A
How come you love him when he takes you for a fool,
D         Dmaj7         Bm           A
he's only looking for a good time.
D          Dmaj7            Bm              A           
How can he love you when he treats you mean cruel,
D            Dmaj7               Bm             A
he's not the best thing that you could find.

      Em7             A
Is it true? I can't believe it.
      Em7                A
Is it true? I just can't see it.
      Em7           Gm7
Is it true? Is that you?

When we were young we didn't really have a care,
you were hung up, I had a good line.
I never knew it then but, man, I was in love.
How could I know it was the right time?

Is it true you've lost that feelin’?
Is it true you might be leavin’?
Is it true? Don't wanna find out.

Em7                 A
Yes, I was so wrong for leading you on,
D            Dmaj7        Bm    A
there wasn't much I could do.
Em7              A
I was a wild one but I can change some
D           Dmaj7      Bm     A
If that's important to you.

Solo: D    Dmaj7    Bm    A  (x4)

Is it true you've lost that feelin’?
Is it true you might be leavin’?
Is it true, is it true?

             D        Dmaj7      Bm    A
She's really leavin',
she's really leavin',
she's really leavin'.

(repeat and fade)


The intro and the solo are both slide parts.  I'm pretty sure these are correct.

Intro
e|-/10--------7\5/7--5---5\2---5\2---2/5--|
B|---------------------7-----------3------|
G|----------------------------------------|
D|----------------------------------------|
A|----------------------------------------|
E|----------------------------------------|


Solo:
e|------------5\-------5\--------5\-5~~-|-10~~-----14-15-17-15/17-/15-14-15p14----|
B|--------5-7------5-7-------5-7--------|-------15-----------------------------15-|
G|-7~~~~---------7---------7------------|-----------------------------------------|
D|--------------------------------------|-----------------------------------------|
A|--------------------------------------|-----------------------------------------|
E|--------------------------------------|-----------------------------------------|

e|-----------------|
B|-/12-10-12p10----|
G|--------------11-|
D|-----------------|
A|-----------------|
E|-----------------|





Comments


Popular Eagles tabs & chords
Heartache Tonight Chords
Madnight Flyer Chords
No More Cloudy Days 1 Chords
Take It Easy 2 Chords
Hotel California Intro 1 Tabs
I Can't Tell You Why Tabs
Peaceful Easy Feeling 1 Tabs
Earlybird Ukulele
Hotel California Ukulele
This Is The Best Of My Love Ukulele


Song lyrics



↑ Back to top | Tablatures and chords are parodies/interpretations of the original songs. You may use it for private study, scholarship, research or language learning purposes only
© 2014 AZChords.com Contact us | Privacy policy | DMCA | Add/correct tabs | Request tabs | Top 50 tabs