» » »

The Disco Strangler Bass tabs (ver.1)

Artists:  A B C D E F G H I J K L M N O P Q R S T U V W X Y Z # 

The Disco Strangler Bass tabs (ver.1)

Eagles
Rating:
0/5 (0 votes)
Tabs too difficult? Try these video lessons and learn fast.
                -----------------------------------------------------------------------------
	              The Disco Strangler - The Eagles (BASS)
                       
-----------------------------------------------------------------------------

Tuning: Standard

=============================================================================

Bass


  Q    E  E  E  E  E  S S    E  Q    Q    E  E  E   
-------5-----5--7---------|------------------------|
--------------------------|------------------------|
----------------------3-4-|--5------------8--7--5--|
--------------------------|------------------------|


  Q    S  S S S E  E  E   E     E  Q    Q    E  E  E   
----------------5------------|------------------------|
-------5s-7---7----7---------|------------------------|
----------------------3s--5--|---------------8--7--5--|
-----------------------------|------------------------|


  Q    E  E  E  E  E  S S    E  Q    Q    E  E  E   
-------5-----5--7---------|------------------------|
--------------------------|------------------------|
----------------------3-4-|--5------------8--7--5--|
--------------------------|------------------------|


  Q    S  S S S E  E  E   E     E  Q    Q    E  E  E   
----------------5------------|------------------------|
-------5s-7---7----7---------|------------------------|
----------------------3s--5--|---------------8--7--5--|
-----------------------------|------------------------|


  E  E  E  E  E  E  E  S  S    E  Q    Q    E  E  E   
--------5-----5--7----------|------------------------|
----------------------------|------------------------|
-----5-----------------3s-4-|--5------------8--7--5--|
----------------------------|------------------------|


  E  E  S  S S S E  E  E   E     E  Q    Q    E  E  E   
-------------5---5------------|------------------------|
--------5s-7---7----7---------|------------------------|
-----5-----------------3s--5--|---------------8--7--5--|
------------------------------|------------------------|


  E  E  E  E  E  E  E  S  S    E  Q    Q    E  E  E   
--------5-----5--7----------|------------------------|
----------------------------|------------------------|
-----5-----------------3s-4-|--5------------8--7--5--|
----------------------------|------------------------|


  E  E  S  S S S E  E  E   E     E  Q    Q    E  E  E   
-------------5---5------------|------------------------|
--------5s-7---7----7---------|------------------------|
-----5-----------------3s--5--|---------------8--7--5--|
------------------------------|------------------------|


  E  E  E  E  E  E  E  S  S    E  Q    Q    E  E  E   
--------5-----5--7----------|------------------------|
----------------------------|------------------------|
-----5-----------------3s-4-|--5------------8--7--5--|
----------------------------|------------------------|


  E  E  S  S S S E  E  E   E     E  Q    Q    E  E  E   
-------------5---5------------|------------------------|
--------5s-7---7----7---------|------------------------|
-----5-----------------3s--5--|---------------8--7--5--|
------------------------------|------------------------|


  Q    S  S S S  E  E  E  E      H        H           Q    E  E  E  E  E  S S 

 
------------------------------|--------------------|-------5-----5--7---------|
-------2s-3---2s-3--3--5--L\--|--------------------|--------------------------|
------------------------------|--------------------|----------------------3-4-|
--3---------------------------|--1--------5--------|--------------------------|


  E  Q    Q    E  E  E     Q    S  S S S E  E  E   E     E  Q    Q    E  E  E 

  
------------------------|----------------5------------|------------------------|
------------------------|-------5s-7---7----7---------|------------------------|
--5------------8--7--5--|----------------------3s--5--|---------------8--7--5--|
------------------------|-----------------------------|------------------------|


  E  E  E  E  E  E  E  S S    E  Q    Q    E  E  E   
--------5-----5--7---------|------------------------|
---------------------------|------------------------|
-----5-----------------3-4-|--5------------8--7--5--|
---------------------------|------------------------|


  E  E  S  S S S E  E  E   E     E  E  E  E  S S E  E  E   
-----------------5------------|---------------------------|
--------5s-7---7----7---------|---------------------------|
-----5-----------------3s--5--|------------------5--3--5--|
------------------------------|--------------1-0----------|


  E  E  E  E  E  E  E  S S    E  Q    Q    E  E  E   
--------5-----5--7---------|------------------------|
---------------------------|------------------------|
-----5-----------------3-4-|--5------------8--7--5--|
---------------------------|------------------------|


  E  E  S  S S S E  E  E   E     E  Q    Q    E  E  E   
-----------------5------------|------------------------|
--------5s-7---7----7---------|------------------------|
-----5-----------------3s--5--|---------------8--7--5--|
------------------------------|------------------------|


  E  E  E  E  E  E  E  S S    E  Q    Q    E  E  E   
--------5-----5--7---------|------------------------|
---------------------------|------------------------|
-----5-----------------3-4-|--5------------8--7--5--|
---------------------------|------------------------|


  E  E  S  S S S E  E  E   E     E  E  E  E  S S E  E  E   
-------------5---5------------|---------------------------|
--------5s-7---7----7---------|---------------------------|
-----5-----------------3s--5--|------------------5--3--5--|
------------------------------|--------------1-0----------|


  E  E  E  E  E  E  E  S S    E  Q    Q    E  E  E   
--------5-----5--7---------|------------------------|
---------------------------|------------------------|
-----5-----------------3-4-|--5------------8--7--5--|
---------------------------|------------------------|


  E  E  S  S S S E  E  E   E     E  Q    Q    E  E  E   
-----------------5------------|------------------------|
--------5s-7---7----7---------|------------------------|
-----5-----------------3s--5--|---------------8--7--5--|
------------------------------|------------------------|


  Q    S  S S S E  E  E  E      H        H           Q    E  E  E  E  E  S S  
-----------------------------|--------------------|-------5-----5--7---------|
-------2s-3---2-3--3--5--L\--|--------------------|--------------------------|
-----------------------------|--------------------|----------------------3-4-|
--3--------------------------|--1--------5--------|--------------------------|


  E  Q    Q    E  E  E     E  E  S  S S S E  E  E   E   
------------------------|-----------------5------------|
------------------------|--------5s-7---7----7---------|
--5------------8--7--5--|-----5-----------------3s--5--|
------------------------|------------------------------|


  E  Q    Q    E  E  E     Q    S  S S S E  E  E  E      H        H         
------------------------|-----------------------------|--------------------|
------------------------|-------2s-3---2-3--3--5--L\--|--------------------|
---------------8--7--5--|-----------------------------|--------------------|
------------------------|--3--------------------------|--1--------5--------|


Duration Legend
---------------
W - whole
H - half
Q - quarter
E - 8th
S - 16th
T - 32nd
X - 64th
. - note dotted
|-n-|  - n-tuplets


Tablature Legend
----------------
L - tied note
x - dead note
g - grace note
(n) - ghost note
> - accentuded note
NH - natural harmonic
AH - artificial harmonic
TH - tapped harmonic
SH - semi harmonic
PH - pitch harmonic
h - hammer on
p - pull off
b - bend
br - bendRelease
pb - preBend
pbr - preBendRelease
brb - bendReleaseBend
\n/ - tremolo bar dip
\n - tremolo bar dive
-/n - tremolo bar Release up
/n\ - tremolo bar inverted dip
/n - tremolo bar return
-\n - tremolo bar Release down
S - shift slide
s - legato slide
/ -  slide into from below or out of upwards
\ -  slide into from above or out of downwards
~ - vibrato
W - wide vibrato
tr - trill
TP - tremolo picking
T - tapping
S - slap
P - pop
< - fade in
^ - brush up
v - brush down
            
Tabs too difficult? Try these video lessons and learn fast.


comments powered by Disqus
↑ Back to top | Tablatures and chords are parodies/interpretations of the original songs. You may use it for private study, scholarship, research or language learning purposes only