» » »

From Here To La Tabs (ver.1)

Artists:  A B C D E F G H I J K L M N O P Q R S T U V W X Y Z # 

From Here To La Tabs (ver.1)

Early November
Rating:
3/5 (3 votes)

Tabs too difficult? Try these video lessons and learn fast.
                Tuning: Eb Ab Db Gb Bb eb (half a step down)

verse
e|------3----------3----------3------------------------------------|
B|------3----------3----------3------------------------------------|
G|-----------------2----------------------0---0---0----------------|
D|----------------------------2--------0h2-0h2-0h2-----------------|
A|------2---------------------3------------------------------------|
E|------3----------2-----------------------------------------------|

bridge
e|------------------3--------------3----------------2--------------|
B|----0-------------3--------------3----------------3--------------|
G|----0----------------------------2----------------2--------------|
D|----2-------------2----------------------------------------------|
A|----2-------------3----------------------------------------------|
E|----0----------------------------2-------------------------------|

chorus
e|---3-----------3------------3-----------3-----------------|
B|---3-----------3------------3-----------3-----------------|
G|---------------2------------------------------------------|
D|----------------------------2-----------2-----------------|
A|----------------------------3-----------3-----------------|
E|---3-----------2------------------------------------------|

solo
e|----------15-14-12---------------------------------------------------|
B|--15br-------------15-13-12------------------------------------------|
G|--14br---------------------------------------------------------------|
D|----------------------------10/12~---/14~---10p9-----14p12-----------|
A|-------------------------------------------------10--------12----10~-|
E|---------------------------------------------------------------------|

e|----------------------------------------------------------15----15---|
B|----------------------------------------------------15h17----17------|
G|--14b-12----------------------------14-12----12~---------------------|
D|--14b-12--10-9--------------10--9---------14-------------------------|
A|---------------------10~----10-10------------------------------------|
E|---------------10-12-------------------------------------------------|

please rate/comment
            
Tabs too difficult? Try these video lessons and learn fast.


comments powered by Disqus
↑ Back to top | Tablatures and chords are parodies/interpretations of the original songs. You may use it for private study, scholarship, research or language learning purposes only