» » »

Long Talks Tabs (ver.3)

Artists:  A B C D E F G H I J K L M N O P Q R S T U V W X Y Z # 

Long Talks Tabs (ver.3)

Early November
Rating:
0/5 (0 votes)
Tabs too difficult? Try these video lessons and learn fast.
                So I noticed there were some innacurate tabs for this song so I retabbed it (acoustic) 

I played it over and I'm pretty sure its right on. If I made a mistake or something just 

***Tune all strings up or down relavent to Drop D tuning if you want to sing along to 
song but its not your range***

Intro/Verse:
E|----------------------------------------------------|
B|----------------------------------------------------|
G|-----9----------------------------------------------|
D|-9h11--9-7-7---7--6-----------2--4--4--6--6--7--9~--|
A|-0~---0-0-0----------7---7--------------------------|
D|-------------4--4--4--(4)---0--0--0--0--0--0--0-----|

Pre Chorus:
E|--------------------------------------------------|
B|--------------------------------------------------|
G|--------9----9----9----9----9----9----9-----------|
D|---9h11---11---11---11---11---11---11---11--------|
A|---0----------------------------------------------|
D|--------------------------------------------------|

Chorus:
    A        A/F#      D                  A
E|--0--------4---------2-----|       |----0~---| (Hold the last A chord
B|--2--------5---------3-----|       |----2~---|  until verse starts)
G|--2--------6---------2-----|       |----2~---|
D|--2--------4---------0-----|X2     |----2~---|
A|--0-X16----4-X16-----0-X16-|       |----0~---|
D|-----------4---------0-----|       |---------|

Bridge:(The part where he says I want it anyway you know it)

E|--0~--------4~---------2~-------|
B|--2~--------5~---------3~-------|
G|--2~--------6~---------2~-------|
D|--2~--------4~---------0~-------|
A|--0~--------4~---------0~-------|
D|------------4~---------0~-------|
    Anyway, Anyway, Anyways....

*Its actually the same as the chorus except the strumming is different
so just listen to the song and you should get it :) and o yeah, I'm not very sure about 
transition between chorus and the bridge but i did my best.

Thanks again and sry for all these notes lol
-Dmitro J.
            
Tabs too difficult? Try these video lessons and learn fast.


comments powered by Disqus
↑ Back to top | Tablatures and chords are parodies/interpretations of the original songs. You may use it for private study, scholarship, research or language learning purposes only