» » »

Outside Tabs (ver.1)

Artists:  A B C D E F G H I J K L M N O P Q R S T U V W X Y Z # 

Outside Tabs (ver.1)

Early November
Rating:
0/5 (0 votes)

Tabs too difficult? Try these video lessons and learn fast.
                
Note: this is the demo version from the I Am The Avalanche/Early Nov. split

Intro/Chorus
eb|--------------------|
Bb|--------------------|
Gb|-5----------4-------|
Db|-5----5-----4----2--|
Ab|-3----5-----2----2--|
Db|------5----------2--|

Verse (and the bridge)
(Guitar 1)
eb|--------------------------------------------------|
Bb|--------------------------------------------------|
Gb|--5-5-5-5--7-7-7-7--5-5-5-5--7-7-7-7------8-8-8-8-|
Db|--5-5-5-5--7-7-7-7--5-5-5-5--7-7-7-7---x3-8-8-8-8-|
Ab|--3-3-3-3--5-5-5-5--3-3-3-3--5-5-5-5------6-6-6-6-|
Db|--------------------------------------------------|

(Guitar 2)
eb|---------------------------------------------------|
Bb|---------------------------------------------------|
Gb|---7---5-4-2----7--7/9-7-4----7--5-4-2-----7-11-12-|
Db|-5------------5-----------5------------5-----------|
Ab|---------------------------------------------------|
Db|---------------------------------------------------|

Verse 2 Guitar 2 (the second time)
eb|-----------------------------------------------|
Bb|----15---------------15------------------------|
Gb|-12----12-11-9-7--12----12-11-9-7-------7/8~~--|
Db|------------------------------------x2---------|
Ab|-----------------------------------------------|
Db|-----------------------------------------------|

Bridge
eb|----11----11-----------------------------------|
Bb|----8-----8------------------------------------|
Gb|--5-0--7--0------------------8---9--7--5-------|
Db|--5-0--7--0--a couple times--8---9--7--5-------|
Ab|--3----5---------------------6---7--5--3-------|
Db|-----------------------------------------------|
            
Tabs too difficult? Try these video lessons and learn fast.




comments powered by Disqus
↑ Back to top | Tablatures and chords are parodies/interpretations of the original songs. You may use it for private study, scholarship, research or language learning purposes only