» » »

Let You Go Tabs (ver.1)

Artists:  A B C D E F G H I J K L M N O P Q R S T U V W X Y Z # 

Let You Go Tabs (ver.1)

East West
Rating:
0/5 (0 votes)
Tabs too difficult? Try these video lessons and learn fast.
                Tuning: B-F#-B-E-G#-C#

There are no tabs I could find online for this song, so I figured it out
myself. It isn't that hard at all, but its a awesome song. Interesting
how hard rock bands can write some of the most beautiful songs. Anyways, 
this is very accurate. Rock on.

Verse/Chorus:
|----------------------------------|
|----------------------------------|
|-7-7-7-7-7-7-7-7------------------|
|-7-7-7-7-7-7-7-7-5-5-5-5-5-5-4-4--|
|-5-5-5-5-5-5-4-4-5-5-5-5-5-5-4-4--|
|-----------------5-5-5-5-5-5-4-4--|

Fill (after 1st chorus):
|-------------------------------|
|-------------------------------|
|-------------------------------|
|------5~~~-7~~~-7/5-4h5-4/2-0--|
|-5~~~~-------------------------|
|-------------------------------|

Bridge:
 Due to space limits, I'm sure you can figure the strumming
|------------------------|
|------------------------|
|-9-------7-------9---7--|
|-9---5---7---7---9---7--|
|-7---5---5---7---7---5--|
|-----5-------7----------|

Solo (after bridge):
 Play this with chorus riff in background.
|-----|--------------|-----|-----------|
|-----|-8--7-5-7-----|-----|-8--7-5-7--|
|-7-6-|------------6-|-7-6-|-----------|
|-----|--------------|-----|-----------|
|-----|--------------|-----|-----------|
|-----|--------------|-----|-----------|
  12x                  12x
 Play this riff with bridge riff in background.
|-----------------------------------------|
|-7-8-8-8-7-------7-7-7-8-5---8~~~-7-5----|
|-----------7---7----------------------7--|
|-----------------------------------------|
|-----------------------------------------|
|-----------------------------------------|

Chorus (Key change after orchestrated bridge):
|----------------------------------|
|----------------------------------|
|-9-9-9-9-9-9-9-9------------------|
|-9-9-9-9-9-9-9-9-7-7-7-7-7-7-6-6--|
|-7-7-7-7-7-7-6-6-7-7-7-7-7-7-6-6--|
|-----------------7-7-7-7-7-7-6-6--|

Someday I'll figure some way to play the orchestrated
parts on guitar and I'll be sure to post it.
            
Tabs too difficult? Try these video lessons and learn fast.


comments powered by Disqus
↑ Back to top | Tablatures and chords are parodies/interpretations of the original songs. You may use it for private study, scholarship, research or language learning purposes only