» » »

Mr Es Beautiful Blues Bass tabs (ver.5)

Artists:  A B C D E F G H I J K L M N O P Q R S T U V W X Y Z # 

Mr Es Beautiful Blues Bass tabs (ver.5)

Eels
Rating:
0/5 (0 votes)

Tabs too difficult? Try these video lessons and learn fast.
                Mr E's Beautiful Blues

Standard tuning
EADG

All the other tabs for this are completely wrong,see what you think it's my first tab.

(0.01 - 1.05)

G--------------------------|
D------0--2-0--0-4-0--2----|
A----2--3------------3-----|
E--3--------------------3--|


(1.05-1.10)
G-----------------11----9--|
D------0--2-0--12----10----|
A----2--3------------------|
E--3-----------------------|

(1.11-1.39)
G--------------------------|
D------0--2-0--0-4-0--2----|
A----2--3------------3-----|
E--3--------------------3--|


(1.39-1.44) pause

(1.44-1.48)

G-------------9-------11---9-|
D-----9-12-10---12--12---10--|
A--10------------------------|
E----------------------------|

then just repeat main riff to the end
G--------------------------|
D------0--2-0-0-4-0--2-----|
A----2--3-----------3------|
E--3-------------------3---|


let me know if theres any mistakes thanks
            
Tabs too difficult? Try these video lessons and learn fast.




comments powered by Disqus
↑ Back to top | Tablatures and chords are parodies/interpretations of the original songs. You may use it for private study, scholarship, research or language learning purposes only