» » »

Four Little Diamonds Bass tabs (ver.1)

Artists:  A B C D E F G H I J K L M N O P Q R S T U V W X Y Z # 

Four Little Diamonds Bass tabs (ver.1)

Electric Light Orchestra
Rating:
0/5 (0 votes)
Tabs too difficult? Try these video lessons and learn fast.
                -------------------------------------------------------------------------------
			     SONG NAME - Band Name
-------------------------------------------------------------------------------


Tuning: standard baby!

(O:10) I will call this the verse/chorus section and will refer to it again.
G|--------------------------------(at-0:33)-----------------------|
D|----------------------------------------------------------------|
A|----11--3333333333333333----------------------------------------|
E|-33------------------------------33--22---111111111111111-------|

(0:38)
G|----------------------(at 0:41)----------------------------------|
D|--------------------------------------------33333333-------------|
A|3333333333333333----------------111111111-------------333333333--|
E|----------------------333333333----------------------------------|

It's optional, but you can hit an octave when you're playing the
G during the chorus (sounds like the bassist hit a couple octaves there).

The verse/chorus part is played twice, then there's this at (1:20)
G|--------------------------------------------------------|
D|--------------------------------------------------------|
A|11111111----------33333333------------------------------|
E|---------11111111---------------------------------------|

Stay on that C and then here's the section I'll call the "bridge". (1:28)
G|---------------------------------------------------------|
D|---------------------------------------------------------|
A|---------66666666----------------------------------------|
E|44444444----------66666666-11111111----------------------|

G|---------------------------------------------------------------|
D|---------------------------------------------------------------|
A|---------66666666----------------------------------1111-2222-3-|
E|44444444----------444-333-444-333-444-333-44444444-------------|

That's pretty much it...here's the remaining order:
verse/chorus
that riff at (1:20 -Bb, F, C btw)
bridge
verse/chorus

After the last chorus, there's 2 different basslines to go:
(3:20 - keep repeating this until...)
G|--------------------------------------(3:37)--------------------|
D|----------------------------------------------------------------|
A|11111111--------33333333-----------------11-33333333------------|
E|--------11111111----------------------33------------------------|


| /  slide up
| \  slide down
| h  hammer-on
| p  pull-off
| ~  vibrato
| +  harmonic
| x  Mute note
===============================================================================
            
Tabs too difficult? Try these video lessons and learn fast.


comments powered by Disqus
↑ Back to top | Tablatures and chords are parodies/interpretations of the original songs. You may use it for private study, scholarship, research or language learning purposes only