» » »

The Lights Go Down Bass tabs (ver.1)

Artists:  A B C D E F G H I J K L M N O P Q R S T U V W X Y Z # 

The Lights Go Down Bass tabs (ver.1)

Electric Light Orchestra
Rating:
0/5 (0 votes)

Tabs too difficult? Try these video lessons and learn fast.
                ++++++++++++++++++++++++++++++++++++++++++++++++
| Electric Light Orchestra- The Lights Go Down |
++++++++++++++++++++++++++++++++++++++++++++++++


"And the sun wont shine today..."


Tuning: EADG



Intro
1.
G|-------------------------------------------------------|
D|--------22-55-33---3-55---5--------22-55-33---3-55---5-|
A|-33---3---------------------33---3---------------------|
E|-------------------------------------------------------|

Verse
"One day I gotta get out of here..."
2.
G|-------------------------------------------------------|
D|--------22-55-33---3-55---5--------22-55-33---3-55---5-|
A|-33---3---------------------33---3---------------------|--x3
E|-------------------------------------------------------|

"But I gotta carry on..."
3.
G|-------------------------------------------------------|
D|-77-----77-55-33---3-55---5--------22-55-33---3-55---5-|
A|------7---------------------33---3---------------------|
E|-------------------------------------------------------|

Pre-Chorus
"I believe things are going wrong..."
4.
G|-------------------------------------22--------------|
D|--------22-55-----------22-00---0-33-----------------|
A|-33---3-------00---0-33------------------------22-55-|
E|----------------------------------------33---3-------|

"All your dreams have flown away..."
6.
G|-------------------------------------22---------------|
D|--------22-55-----------22-00---0-33------------------|
A|-33---3-------00---0-33-------------------------------|
E|----------------------------------------33---3--1-1-1-|

Chorus
"The lights go down..."
7.
G|-------------------------------------------------------|
D|--------22-52-33---3-55---5--------22-52-33---3-55---5-|
A|-33---3---------------------33---3---------------------|
E|-------------------------------------------------------|

"The lights go down..."
8.
G|--------------------------------------------------------|
D|-----------22-------------------------------------------|
A|-33---3-33----00---0-00---0-11---1-11---1---------------|
E|------------------------------------------33---3-33---3-|

Outro
9.
G|----------------------------|
D|--------22-55-33---3-55---5-|
A|-33---3---------------------|
E|----------------------------|

Verse
"I know you're waiting so close to me..."
10.
G|-------------------------------------------------------|
D|--------22-55-33---3-55---5--------22-55-33---3-55---5-|
A|-33---3---------------------33---3---------------------|--x3
E|-------------------------------------------------------|

"And just as I turn around..."
11.
G|-------------------------------------------------------|
D|-77-----77-55-33---3-55---5--------22-55-33---3-55---5-|
A|------7---------------------33---3---------------------|
E|-------------------------------------------------------|

Pre-Chorus
"I believe things are going wrong..."
12.
G|-------------------------------------22--------------|
D|--------22-55-----------22-00---0-33-----------------|
A|-33---3-------00---0-33------------------------22-55-|
E|----------------------------------------33---3-------|

"All your dreams have flown away..."
13.
G|-------------------------------------22---------------|
D|--------22-55-----------22-00---0-33------------------|
A|-33---3-------00---0-33-------------------------------|
E|----------------------------------------33---3--1-1-1-|

Chorus
"The lights go down..."
14.
G|-------------------------------------------------------|
D|--------22-52-33---3-55---5--------22-52-33---3-55---5-|
A|-33---3---------------------33---3---------------------|
E|-------------------------------------------------------|

"The lights go down..."
15.
G|--------------------------------------------------------|
D|-----------22-------------------------------------------|
A|-33---3-33----00---0-00---0-11---1-11---1---------------|
E|------------------------------------------33---3--1-1-1-|

"The lights go down..."
16.
G|-------------------------------------------------------|
D|--------22-52-33---3-55---5--------22-52-33---3-55---5-|
A|-33---3---------------------33---3---------------------|
E|-------------------------------------------------------|

"The lights go down..."
17.
G|--------------------------------------------------------|
D|-----------22-------------------------------------------|
A|-33---3-33----00---0-00---0-11---1-11---1---------------|
E|------------------------------------------33---3--1-1-1-|

Play until fades away...

Please rate thanks!


Lyrics:

One day
I gotta get out of here
I gotta make everything clear
I gotta see you, oh, oh.

I know
The way that I feel is wrong, so wrong
But I gotta carry on
When you ain't around.

I believe things are going wrong
And the night goes on and on
All your dreams have flown away
And the sun won't shine today.
The lights go down (I want you, baby)
The lights go down (I need you, baby)
The lights go down
And there's no one around.

I know
You're waiting so close to me
But how will you ever see
As time rolls away?

Lonely
But trying to be so proud
And just as I turn around
The lights go down.



+++++++++++
| Raileff |
+++++++++++
            
Tabs too difficult? Try these video lessons and learn fast.




comments powered by Disqus
↑ Back to top | Tablatures and chords are parodies/interpretations of the original songs. You may use it for private study, scholarship, research or language learning purposes only